PrimaNota.ru - самый крупный в мире бесплатный архив песенных текстов, аккордов, табулатур и нот


Avishai Cohen - Remembering - таба, видео

Регистрация Запомнить меня
Войти через:  Facebook Google Twitter Vk Yandex Mail.ru

Avishai Cohen - Remembering - таба, видео

Печатать
Просмотров: 820
Авторы музыки: Avishai Cohen

Avishai Cohen - Remembering


Comments or corrections please mail me: togolomo@hotmail.com
I know It's not very worked out, but you can play it easily by listening to the original song.

Structure:

Part I
Part II
Part III
Part I
Part II
Part III (repeat this part many times with bass solo)
Part I
Part II
Final chord




Part I

E|-----12----------12------12--------------12------12--------------10-----10--------------10-----|
B|-----------------------------------------------------------------------------------------------|
G|--9------------------------------------------------------------------------------------------7-|
D|---------------------10-----------------------9-----------------------7--------------9---------|
A|-------------12----------------------10-----------------------8-----------------10-------------|
E|---------12----------------------12----------------------10------------------------------------|




E|--8--12----------------------------------------------------------------------------------------|
B|-----------------10------10--------------10------10--------------10------12--------------------|
G|----------------------9-----------------------9-----------------------7-------9----------9-----|
D|--------------------------------------------------------------7------------------------------9-|
A|-------------12----------------------10-------------------9--------------------------11--------|
E|---------12----------------------12----------------------------------------------12------------|




E|-----12----------12------12--------------13------15--15----------10------12--10---------10-----|
B|-------------------------------------10------13----------------------10----------------------8-|
G|--9-------------------9--------------------------------------10-----------------------9--------|
D|-------------10--------------------------------------------------------------------------------|
A|----------0-----------------------8------------------------------------------------------------|
E|---------------------------------------------------------10-----------------------8------------|




E|--8--17----------17------17--------------19------20--20----------13------15--13---------12-----|
B|---------------------13----------------------13----------------------10----------------------8-|
G|-------------14----------------------14----------------------10-----------------------9--------|
D|-----------------------------------------------------------------------------------------------|
A|-----------------------------------------------------------------------------------------------|
E|---------13----------------------12----------------------10-----------------------8------------|



E|--8-----------------------------------------------|
B|-----10-------------------------------------------|
G|----------2---------------------------------------|
D|----------3---------------------------------------|
A|--------------------------------------------------|
E|----------1---------------------------------------|





Part II


E|--8--12----------12------12--------------12------12--------------10-----10--------------10-----|
B|-----------------------------------------------------------------------------------------------|
G|---------------------------------------------------------------------------------------------7-|
D|---------------------10-----------------------9-----------------------7---------------9--------|
A|-------------12----------------------10-----------------------8------------------10------------|
E|---------12----------------------12----------------------10------------------------------------|





E|--8--12----------------------------------------------------------------------------------------|
B|-----------------10------10--------------10------10--------------10----------------------------|
G|----------------------9----------------------10---------------9-------12--------------------10-|
D|-------------10----------------------12----------------------------------------------12--------|
A|---------12----------------------12----------------------12----------------------12------------|
E|-----------------------------------------------------------------------------------------------|




E|--8--12----------------------------------------------------------------------------------------|
B|-----------------10------10--------------10------10--------------10------12--------------------|
G|----------------------9-----------------------9-----------------------7-------9----------9-----|
D|-------------10-----------------------9-----------------------7------------------------------9-|
A|---------12----------------------10-----------------------9--------------------------11--------|
E|---------------------------------------------------------------------------------12------------|
 |---------------------------------------------------|
B|-13--10--10----------------------------------------|
G|---------10----------------------------------------|
D|----------0----------------------------------------|
A|---------12----------------------------------------|
E|---------10----------------------------------------|




Part III

E|--8--------------------------------------------------------------------------------------------|
B|-----10----------10------10--------------10------10--------------10------10-------------10-----|
G|----------------------9---------------8-------------------------------7---------------7--------|
D|-------------10------------------------------10---------------9------------------------------9-|
A|----------0-----------------------9-----------------------8-----------------------7------------|
E|-----------------------------------------------------------------------------------------------|




E|--8--------------------------------------------------------------------------------------------|
B|-----10----------10------10--------------10------10--------------10------10-------------10-----|
G|----------------------9---------------8-------------------------------7---------------7--------|
D|-------------10------------------------------10---------------9------------------------------9-|
A|----------0-----------------------9-----------------------8-----------------------7------------|
E|-----------------------------------------------------------------------------------------------|




E|--------------------------7---------------7-------7---------------7-------7--------------7-----|
B|-----10----------10----------------------------------------------------------------------------|
G|--9-------------------9---------------8-------------------------------7---------------7--------|
D|-------------10------------------------------10---------------9------------------------------9-|
A|----------0-----------------------9-----------------------8-----------------------7------------|
E|-----------------------------------------------------------------------------------------------|





E|--------------------------7---------------7-------7---------------7-------7--------------7-----|
B|-----10----------10----------------------------------------------------------------------------|
G|--9-------------------9---------------8-------------------------------7---------------7--------|
D|-------------10------------------------------10---------------9------------------------------9-|
A|----------0-----------------------9-----------------------8-----------------------7------------|
E|-----------------------------------------------------------------------------------------------|




E|-----bla---------------------------------------------------------------------------------------|
B|-----------------bla-----bla-------------------------------------------------------------------|
G|--bla----------------bla-----------------------------------------------------------------------|
D|-------------bla-------------------------------------------------------------------------------|
A|--------bla------------------------------------------------------------------------------------|
E|-----------------------------------------------------------------------------------------------|



End chord

E|--7------------------------------------------------|
B|--5------------------------------------------------|
G|--5------------------------------------------------|
D|--7------------------------------------------------|
A|--7------------------------------------------------|
E|--5------------------------------------------------|
Добавлено: 09.03.2012
Другие материалы по этой песне:
  • Аккорды и текст

Страница создана 09.03.2012
http://primanota.ru/avishai-cohen/remembering-chords.htm
Привет, Гость.
Предлагаем пройти революционный курс по гитаре.
Подарок от PrimaNota.Ru, забирай!