PrimaNota.ru - самый крупный в мире бесплатный архив песенных текстов, аккордов, табулатур и нот


Avishai Cohen - Continuo - бас-таба, видео

Регистрация Запомнить меня
Войти через:  Facebook Google Twitter Vk Yandex Mail.ru

Avishai Cohen - Continuo - бас-таба, видео

Печатать
Просмотров: 50
Авторы музыки: Avishai Cohen

-------------------------------------------------------------------------------
                             Continuo - Avishai Cohen
-------------------------------------------------------------------------------
Tabbed by: Seth
E-mail: 

Tuning: EADG

G|---17-------17-15-14-------14-11-------11-12-------12-10-7-----7-8-10---------|
D|------------------------12----------------------------------------------------|
A|---------17-------------------------12----------13-----------8----------10----|
E|------15-------------14----------10----------11------------6----------8-------|

                                                                                  X2
G|---10-8-------------8-10-------10----12-------12-15-------14------------------|
D|--------15-------15-----------------------------------------------------------|
A|--------------13------------13-------------13----------15---------------------|
E|-----------11------------11-------11----11----------13------------------------|




G|---17-------15-17-18-------18-19-------17-17-------15-17-18-------18-19-------|
D|------------------------------------16-------------------------------------16-|
A|---------17-------------19----------------------17-------------19-------------|
E|------15-------------17----------17----------15-------------17----------17----|


G|---19-19-------7-9-10------9-10------9-7-----7-9-10------9-10------9-12-------|
D|------------17----------------------------------------------------------------|
A|------------------------10--------10-------8----------10--------10---------13-|
E|---------18-----------8---------8--------6----------8---------8---------11----|


G|---12-14-15-------14\12-12-------11-10------8-8-----7-7-----5-5-----3-3-----2-|
D|------------------------------------------------------------------------------|
A|---------------13-------------12---------10-------8-------6-------5-------3---|
E|------------11-------------10----------8--------6-------4-------3-------1-----|


G|-12-------12-14-17-------14\12-12-------11-10------8-8-----7-7-----5-7-----5-7-----5|
D|------------------------------------------------------------------------------------|
A|-------13------------13-------------12---------10-------8-------6-------6-------6---|
E|----11------------11-------------10----------8--------6-------4-------4-------4-----|



 \ = slide down

===============================================================================

Adapted to fit 4 string bass.

I used this video to work it out: https://www.youtube.com/watch?v=NmucOqrhtnY
Добавлено: 24.12.2015
Другие материалы по этой песне:
  • Аккорды и текст

Страница создана 24.12.2015
http://primanota.ru/avishai-cohen/continuo-chords.htm
Привет, Гость.
Предлагаем пройти революционный курс по гитаре.
Подарок от PrimaNota.Ru, забирай!