PrimaNota.ru - самый крупный в мире бесплатный архив песенных текстов, аккордов, табулатур и нот


Avion Roe - Who I Am - таба, видео

Регистрация Запомнить меня
Войти через:  Facebook Google Twitter Vk Yandex Mail.ru

Avion Roe - Who I Am - таба, видео

Печатать
Просмотров: 374
Уроки эстрадного вокала в Санкт-Петербурге
Tuning: 

C#
G#
C#
F#
A#
D#

* - PM


Intro/Verse
                                _
C#----------      -----------    \
G#----------      -----------     \
C#-10-10-10~      -10-10-10~~      \
F#-10-10-10~ x 5=>-10-10-10~~ x 5   > x6
A#-0--0--0~~      -8--8--8~~~      /
D#----------      -8--8--8~~~     /
   *  *            *  *         _/

Prechorus:

C#--8~--|
G#----6~|
C#-5~---| x2
F#------|
A#------|
D#------|

Chorus:

C#----------------------------------------|
G#----------------------------------------|
C#----------55555555----------33333333----|
F#-33333333-55555555-00000000-33333333----| x2
A#-33333333-33333333-00000000-11111111----|
D#-33333333----------00000000-------------|

Intro/Verse
                                _
C#----------      -----------    \
G#----------      -----------     \
C#-10-10-10~      -10-10-10~~      \
F#-10-10-10~ x 5=>-10-10-10~~ x 5   > x5
A#-0--0--0~~      -8--8--8~~~      /
D#----------      -8--8--8~~~     /
   *  *            *  *         _/

Prechorus:

C#--8~--|
G#----6~|
C#-5~---| x2
F#------|
A#------|
D#------|

Chorus:

C#----------------------------------------|
G#----------------------------------------|
C#----------55555555----------33333333----|
F#-33333333-55555555-00000000-33333333----| x2
A#-33333333-33333333-00000000-11111111----|
D#-33333333----------00000000-------------|

C#------------------------|
G#------------------------|
C#----------55555555-3~~~~|
F#-33333333-55555555-3~~~~| Ring out 
A#-33333333-33333333-1~~~~|
D#-33333333---------------|

Breakdownish like thing:
Not too sure but all I can figure out is this...

(at all, at all.)
C#-----------------|
G#-----------------|
C#-----------------|
F#--8~7~~~~8~7~~~~~|
A#-----------------|
D#-----------------|


Fill before chorus comes back:

C#---------------------|
G#-10-----11-----13----|
C#-x-(x8)-x-(x8)-x-(x8)|
F#-7------8------10----|
A#---------------------|
D#---------------------|

Chorus:

C#----------------------------------------|
G#----------------------------------------|
C#----------55555555----------33333333----|
F#-33333333-55555555-00000000-33333333----| x3
A#-33333333-33333333-00000000-11111111----|
D#-33333333----------00000000-------------|

End on:

C#---|
G#---|
C#-2~|
F#-2~| Ring out
A#-0~|
D#---|
Добавлено: 16.07.2013
Другие материалы по этой песне:
  • Аккорды и текст

Страница создана 16.07.2013
http://primanota.ru/avion-roe/who-i-am-chords.htm
Привет, Гость.
Предлагаем пройти революционный курс по гитаре.
Подарок от PrimaNota.Ru, забирай!