PrimaNota.ru - самый крупный в мире бесплатный архив песенных текстов, аккордов, табулатур и нот


Avicii - Feeling Good - аккорды и текст, видео

Регистрация Запомнить меня
Войти через:  Facebook Google Twitter Vk Yandex Mail.ru

Avicii - Feeling Good - аккорды и текст, видео

Печатать
Просмотров: 326
Уроки эстрадного вокала в Санкт-Петербурге
Feeling Good
Avicii
Bass line: ()= Optional
e|---------------------------------------------------------------------------|
B|---------------------------------------------------------------------------|
G|---------------------------------------------------------------------------|
D|---------------------------------------------------------------------------|
A|-(2)--(2)--------------------------(2)-------------------------------------|
E|--7----7-5----5-3----3-2----2-5-2-5-7--------------------------------------|

Chords:

Bm
Birds flying high, you know how I feel
Sun in the sky, you know how I feel
Breeze driftin' on by, you know how I feel.

It's a new dawn,
It's a new day,
It's a new life for me, yeah
And I'm feeling good!

Bm A G F#

Bm          D    G              F#            
Fish in the sea, you know how I feel
Bm          D    G              F#
River running free, you know how I feel
Bm          A    E              G
Blossom on the tree, you know how I feel

Bm
It's a new dawn,
Em
It's a new day,
D       Dbm        Em   F#
It's a new life for me, yeah
               Bm D G F#
And I'm feeling good!
               Bm D G F#
And I'm feeling good!

Bm    A     E     G

Bm           A
Dragonfly out in the sun
E            G
You know what I mean, don't you know
Bm           A              E               G
Butterflies are havin' fun, you know what I mean
Bm           A              E               G
Sleep in peace when day is done, that's what I mean
        Bm            Em                D        Dbm     Em   F#
In this old world is a new world, and a bold world for me!

Bm          D    G              F#    
Stars when you shine, you know how I feel
Bm          D    G              F#
Scent of the pine, you know how I feel
Bm          A    E              G
Oh, freedom is mine and I know how I feel

Bm
It's a new dawn,
D
It's a new day,
G                   A
It's a new life for me
Bm
It's a new dawn,
D
It's a new day,
G                   F#       Em    F#
It's a new life for me,
                  Bm  A  G  F#
And I'm feeling good!
Bm     A     G    F#
And I'm feeling good!
Bm

Interlude riff: (From "Dragonfly...")

e|----7----10p7----7-----7---------------------|
B|------10------10---------10------------------|
G|----------------------------9p7--------------| x 11
D|--9------------------7----------9-7----------|
A|---------------------------------------------|
E|---------------------------------------------|


Добавлено: 07.09.2015
Другие материалы по этой песне:
  • Аккорды и текст

Страница создана 07.09.2015
http://primanota.ru/avicii/feeling-good-chords.htm
Привет, Гость.
Предлагаем пройти революционный курс по гитаре.
Подарок от PrimaNota.Ru, забирай!