PrimaNota.ru - самый крупный в мире бесплатный архив песенных текстов, аккордов, табулатур и нот


Avicii - Cant Catch Me - аккорды и текст, видео

Регистрация Запомнить меня
Войти через:  Facebook Google Twitter Vk Yandex Mail.ru

Avicii - Cant Catch Me - аккорды и текст, видео

Печатать
Просмотров: 126
Авторы: Wyclef Jean, Mike Einziger, Matthew Miller, Tim Bergling

Cant Catch Me
Avicii
Capo on 1st fret

Chords:

     Em  D/F# G   C   D
e|---0---2----3---0---x---|
B|---0---3----3---1---3---|
G|---0---2----4---0---2---| 
D|---2---4----5---2---0---| 
A|---2--(5)---5---3---0---|
E|---0---2----3---x---x---| 

[Intro]

|Em   |D/F# G|C   |G D/F#|
|Em   |D/F# G|C   |D     |

[Verse 1]
Em           D/F#       G      C
Papa, he was gone tryna make a dime
             G         D/F#         Em
Mama kept us warm when there was no sunshine
                    D/F# G   C
I was busy building up a reputation
             D                  Em
Did a lot of things out of desperation
              D/F#          G   C
Back up on my feet, got the motivation
               G           D/F#   Em
Now I found my faith and a good vibration

|Em   |D/F# G|C   |G D/F#|
|Em   |D/F# G|C   |D     |

[Pre-Chorus]
           Em             D/F#
Search for you, lover, creation
G                   C                          G          D/F#
When you're feeling down in this place, just replace them
       Em                            D/F#    G
Keep a vision on the one you've been chasing
         C                           D
When the time comes we'll run to the station
           Em                          D/F#  G
We've been laced with the powers of creation
            C                          G         D/F#
So when the sun sets, you bet you must face them
         Em                              D/F#   G
Remember when we were running 'cross the nation
        C                       D
We were living for the here and now


[Chorus]
          Em    G
You can't catch me
        C                          D
I'll be gone by the time they come
          Em    G
You can't catch me
    C                  D
The war is already won
                Em                       G
Even though the children have sold their guns
          C                      D
We must remember the fallen ones
Em                       G       C    D
Remember the fallen ones

Solo related to Capo
e|---------------------------------------------------3-------2---------------|
B|-----3-------3-------3---3---5-----3-------3-------------------3-----------|
G|---4-----2p0-----2h4-------------4---4-2-0---4-2-0-------------------------|
D|---------------------------------------------------------------------------|
A|---------------------------------------------------------------------------|
E|---------------------------------------------------------------------------|

e|---------------------------------------------------------------------------|
B|-----3-------5-------3---3---3-----3-------3-------3-----------3-----------|
G|---4-----2p0-----2h4-------------4---4-2-0---4-2-0---------0---------------|
D|---------------------------------------------------------------------------|
A|---------------------------------------------------------------------------|
E|---------------------------------------------------------------------------|

[Verse 2]
Em            D/F#       G       C
Raised in the capital of Port-au-Prince
               G              D/F#  Em
Born with them pillars and them tenements
             D/F#         G   C
Papa used to run from the immigration
                   D              Em
When we got to the United Station
             D/F#             G       C
A teen under pressure, had to blend in
           G            D/F#    Em
Before the guitar I had to back in

|Em   |D/F# G|C   |G D/F#|
|Em   |D/F# G|C   |D     |

[Pre-Chorus]
           Em             D/F#
Thanks for you, lover, creation
G                   C                          G          D/F#
When you're feeling down in this place, just replace them
       Em                            D/F#    G
Keep a vision on the one you've been chasing
         C                           D
When the time comes we'll run to the station
           Em                          D/F#  G
We've been laced with the powers of creation
            C                          G         D/F#
So when the sun sets, you bet you must face them
         Em                              D/F#   G
Remember when we were running 'cross the nation
        C                       D
We were living for the here and now

[Chorus]
          Em    G
You can't catch me
        C                          D
I'll be gone by the time they come
          Em    G
You can't catch me
    C                  D
The war is already won
                Em                       G
Even though the children have sold their guns
          C                      D
We must remember the fallen ones
Em                       G       C    D
Remember the fallen ones
Добавлено: 01.04.2016
Другие материалы по этой песне:
  • Аккорды и текст

Страница создана 01.04.2016
http://primanota.ru/avicii/cant-catch-me-chords.htm
Привет, Гость.
Предлагаем пройти революционный курс по гитаре.
Подарок от PrimaNota.Ru, забирай!