PrimaNota.ru - самый крупный в мире бесплатный архив песенных текстов, аккордов, табулатур и нот


Aversions Crown - Vectors - таба, видео

Регистрация Запомнить меня
Войти через:  Facebook Google Twitter Vk Yandex Mail.ru

Aversions Crown - Vectors - таба, видео

Печатать
Просмотров: 129
hey, this is Vectors by Aversions Crown. This should be pretty correct. Missing last clean bit because I
Don't know how it goes. Tuning is up to Drop F 8 string (weird I know) FCFA#D#G#C. 
Enjoy. I hope it's not too
Confusing

   Intro
   |--------part one---------|.     |-------part two--------|
F |---------------------------------------------------------|
C |---------------------------------------------------------|
G#|-9----------9-10------10-9-------8--------8-8-------8-8--|
D#|-7----------7-7--------7-7-------6--------6-6-------6-6--|
A#|-5----------5-5--5-5-5-5-5-------4--------4-4-------4-4--|
F |-5--5-5-5-5-5-5--5-5-5-5-5-5-5-5-4--4-4-4-4-4-4-4-4-4-4--|
C |-5--5-5-5-5-5-5--5-5-5-5-5-5-5-5-4--4-4-4-4-4-4-4-4-4-4--|
F |-5--5-5-5-5-5-5--5-5-5-5-5-5-5-5-4--4-4-4-4-4-4-4-4-4-4--|

Verse
|----------------------------------------------------------------------------------------------|
|----------------------------------------------------------------------------------------------|
|----------------------------------------------------------------------------------------------|
|----------------------------------------------------------------------------------------------|
|----------------------------------------------------------------------------------------------|
|----------------------------------------------------------------------------------------------|
|----------------------------------------------------------------------------------------------|
|-5-5-5-5-5-5-5-5-7-7-7-7-5-5-5-5-7-7-7-7-8-8-8-8-8-8-5-5-5-5-7-7-7-7-8-8-8-8-8-8-7-7-7-7-7-7--|


|-------------------------------------------------------------------------|
|-------------------------------------------------------------------------|
|-------------------------------------------------------------------------|
|-------------------------------------------------------------------------|
|-------------------------------------------------------------------------|
|-------------------------------------------------------------------------|
|---------------------------------------------------------1-1-1-1-1-1-1-1-|
|-4-4-4-4-4-4-4-4-5-5-5-5-4-4-4-4-5-5-5-5-7-7-7-7-7-7-7-7-----------------|


Chorus
|--------------------------------------------------------------------------------------------------------|
||------------------------part one--------------------------------|-------------part two-----------------|
|--------------------------------------------------------------------------------------------------------|
|--------------------------------------------------------------------------------------------------------|
|--------------------------------------------------------------------------------------------------------|
|-----------------7-7-7-7---------7-7-7-7-8-8-8-8-8-8-7-7-7-7-7-7----------------------------------------|
|-5-5-5-5-5-5-5-5---------5-5-5-5---------------------------------1-1-1-1-1-1-1-1-1-1-1-1-1-1-1-1-1-1-1--|
|--------------------------------------------------------------------------------------------------------|

Bridge
|-------5---------5----------------------3---------3-------3-----|
|---6-----6---6-----6-------6---6----5-----5---5-----5---5---5---|
|-7---7-----7---7-----7---9---9----6---6-----6---6-----6-------6-|
|----------------------------------------------------------------|
|----------------------------------------------------------------|
|----------------------------------------------------------------|
|----------------------------------------------------------------|
|----------------------------------------------------------------|

Bridge chugs
|----------------------------------------------------------|
|----------------------------------------------------------|
|----------------------------------------------------------|
|----------------------------------------------------------|
|----------------------------------------------------------|
|-0-0-0-0----0-0-0-0--0-0-0-0----0-0-0-0--0-0-0-0--0-0-0-0-|
|-0-0-0-0----0-0-0-0--0-0-0-0----0-0-0-0--0-0-0-0--0-0-0-0-|
|-0-0-0-0----0-0-0-0--0-0-0-0----0-0-0-0--0-0-0-0--0-0-0-0-|

Bridge part two
|---------------------------------------------------------------------|
|---------------------------------------------------------------------|
|-9-------9-----10--------9--------8-------8-----8-----------8--------|
|-7-------7------7--------7--------6-------6-----6-----------6--------|
|---------------------------------------------------------------------|
|---------------------------------------------------------------------|
|------------------------------------4-4-4---4-4-------4-4-4---4-4-4--|
|---5-5-5---5-5------5-5-5---5-5-5---4-4-4---4-4-------4-4-4---4-4-4--|

Breakdown/outro
|------------------------------------------------------|
|------------------------------------------------------|
|------------------------------------------------------|
|------------------------------------------------------|
|------------------------------------------------------|
|------------------------------------------------------|
|-0----0-0-0-0--0-0-0-0--0-0-0-0--0-0-0-0--0-0-0-------|
|-1----1-1-1-1--1-1-1-1--1-1-1-1--1-1-1-1--1-1-1-1^3^1-|


|--------------------------------------------------|
|--------------------------------------------------|
|--------------------------------------------------|
|--------------------------------------------------|
|--------------------------------------------------|
|--------------------------------------------------|
|-0----0-0-0-0--0-0-0-0--0-0-0-0--0-0-0-0--0-0-0-0-|
|-1----1-1-1-1--1-1-1-1--1-1-1-1--1-1-1-1--1-1-1-1-|

Order of riffs:
Intro x2
Verse x4
Intro riff one X1
Chorus riff one X1
Chorus riff two X1
Chorus riff one X1
Bridge x6
Bridge chugs x4 (comes in on third play through of bridge)
Bridge part two x4
Breakdown x3
Добавлено: 19.12.2015
Другие материалы по этой песне:
  • Аккорды и текст

Страница создана 19.12.2015
http://primanota.ru/aversions-crown/vectors-chords.htm
Привет, Гость.
Предлагаем пройти революционный курс по гитаре.
Подарок от PrimaNota.Ru, забирай!