PrimaNota.ru - самый крупный в мире бесплатный архив песенных текстов, аккордов, табулатур и нот


Average White Band - Work To Do - текст песни, бас-таба, видео

Регистрация Запомнить меня
Войти через:  Facebook Google Twitter Vk Yandex Mail.ru

Average White Band - Work To Do - текст песни, бас-таба, видео

Печатать
Просмотров: 28
Новый альбом группы 'Черный Кузнец' по культовому сериалу 'Сверхъестественное'!
Авторы: O'Kelly Isley, Jr., Rudolph Isley, Ronald Isley

Standard Tuning E, A, D, G.

This song is a lot of repetition, and can be broken down into 3 parts.The parts are to be played 
with a bit of improvisation, but what follows is a rough tab of the bass line.

[Intro]
Right after the drum fill, band comes in with bass:
G|-------------|------------|-------------|-----------|
D|-----4/6-----|------------|-----4/6-----|-----------| TO
A|---------7---|------------|---------7---|-----1-2-3-| VERSE
E|-7-7-------9-|-7-7--4-5-6-|-7-7-------9-|-7-7-------|

[Verse]
G|----6-6-----6---|-------4-4------|---6-6---6-----|-----4-4------|
D|--------6-6--6--|----2-4---4-----|------6-6--6---|--2-4---2-1-0-| REPEAT 3x
A|-4------------4-|-2----------2-3-|-4-----------4-|-2------------| 
E|----------------|----------------|---------------|--------------|

The last time through before the chorus:

G|----6-6----6---|-------4-4-----|---6-6---6----|------4-4------|
D|-------6-6--6--|----2-4---4----|------6-6--6--|---2-4---------|
A|-4-----------4-|-2---------2-3-|-4----------4-|-2--------3-2-1|
E|---------------|---------------|--------------|---------------|

[Chorus]           back to [Intro]
G|-------|-------|-------|-------|-------------|------------|-------------|------------|
D|-------|-------|-------|-------|-----4/6-----|------------|-----4/6-----|------------| TO
A|-0-----|-------|-----2-|-4---3-|-2-2-----7---|------------|---------7---|------1-2-3-| VERSE
E|-----4-|-2---3-|-4-----|-------|-----------9-|-7-7--4-5-6-|-7-7-------9-|-7-7--------|

(The Verse is played during the solo)

[Alternate Intro]
This Intro is more in position with the rest of the song,
but it doesn't have the nice slide into the G#.
G|-----1-----|------------|-----1-----|------------|
D|-------2---|------------|-------2---|------------|
A|-2-2-----4-|-2-2----0-1-|-2-2-----4-|-2-2--1-2-3-|
E|-----------|-----4------|-----------|------------|
 

************************************

| /  Slide up

************************************
Добавлено: 21.01.2018
Другие материалы по этой песне:
  • Аккорды и текст

Страница создана 13.02.2014
http://primanota.ru/average-white-band/work-to-do-chords.htm
Привет, Гость.
Предлагаем пройти революционный курс по гитаре.
Подарок от PrimaNota.Ru, забирай!