PrimaNota.ru - самый крупный в мире бесплатный архив песенных текстов, аккордов, табулатур и нот


Average White Band - School Boy Crush - текст песни, бас-таба, видео

Регистрация Запомнить меня
Войти через:  Facebook Google Twitter Vk Yandex Mail.ru

Average White Band - School Boy Crush - текст песни, бас-таба, видео

Печатать
Просмотров: 27
Новый альбом группы 'Черный Кузнец' по культовому сериалу 'Сверхъестественное'!
Tabbed by: 6METAL6BASSIST6
E-mail: petergriffinav@gmail.com

Tuning: EADG

G|------------------------------------------------------------------------------------------------|
D|------------------------------------------------------------------------------------------------|
A|------------------------------------------------------------------------------------------------|
E|------------------------------------------------------------------------------------------------|

G|----------------------------------------------------------------------------------/-19----------|
D|------------------------------------------------------------------------------------------------|
A|------------------------------------------------------------------------------------------------|
E|------------------------------------------------------------------------------------------------|

0:11

G|------------------------------------------------------------------------------------------------|.
D|------------------------------------------------------------------------------------------------|.
A|------------------------------------------------------------------------------------------------|.
E|0-----------------------------------0---0-------------------------------------------------------|.
                                                                                                   . x2
G|------------------------------------------------------------------------------------------------|.
D|------------------------------------------------------------------------------------------------|.
A|------------------------------------------------------------------------------------------------|.
E|0-----------------3---3-------5---5-------3---3-------0-----------------------------------------|.

0:33

G|------------------------------------------------------------------------------------------------|.
D|------------------------------------------------------------------------------------------------|.
A|------------------------------------------------------------------------------------------------|.
E|0-----------------------------------0---0-------------------------------------------------------|.
                                                                                                   . x4
G|------------------------------------------------------------------------------------------------|.
D|------------------------------------------------------------------------------------------------|.
A|------------------------------------------------------------------------------------------------|.
E|0-----------------3---3-------5---5-------3---3-------0-----------------------------------------|.

1:18

G|------------------------------------------------------------------------------------------------|
D|------------------------------------------------------------------------------------------------|
A|------------------------------------------------------------------------------------------------|
E|6-----------------------------------6---6-------------------------------------------------------|

G|--------------------------------------------------------------------------------------/-7-------|
D|------------------------------------------------------------------------------------------------|
A|------------------4---4-------6---6-------4---4-------------------------------------------------|
E|6-----------------------------------------------------6-----------------------------------------|

1:30

G|------------------------------------------------------------------------------------------------|
D|------------------------------------------------------------------------------------------------|
A|------------------------------------------------------------------------------------------------|
E|6-----------------------------------6---6-------------------------------------------------------|

G|------------------------------------------------------------------------------------------------|
D|----------------------------------------------------------------------------8-----------7---\---|
A|------------------4---4-------6---6-------4---4-------------------------------------------------|
E|6-----------------------------------------------------6-----------------6-----------5-----------|

1:40

G|----------------------------------------------------------2-------3-----------------------------|
D|------------------------------------------------------------------------------------------------|
A|------------------------------------------------3-----------------------------------------------|
E|3---------------0-------1-----------------------------------------------------------------------|

G|----------------------------------5-------------------------------------------------------------|
D|----------------------------------------------------------------------------2-------------------|
A|------------------------------------------------3-----------------------------------------------|
E|3---------------0-------1-----------------------------------------------0-----------1-----2-----|

1:51

G|----------------------------------------------------------2-------3-----------------------4---5-|
D|------------------------------------------------------------------------------------------------|
A|------------------------------------------------3-----------------------------------------------|
E|3---------------0-------1-----------------------------------------------------------------------|

G|--------------------------------/-5-----------------------------------------3---/-------5-------|
D|------------------------------------------------------------------------------------------------|
A|------------------------------------------------3-----------------------1-----------3-----------|
E|3---------------0-------1-----------------------------------------------------------------------|

G|------------------------------------------------|
D|----------------------------5-----------4-------|
A|------------------------------------------------|
E|3-----------------------3-----------2-----------|

2:05

G|------------------------------------------------------------------------------------------------|.
D|------------------------------------------------------------------------------------------------|.
A|------------------------------------------------------------------------------------------------|.
E|0-----------------------------------0---0-------------------------------------------------------|.
                                                                                                   . x5
G|------------------------------------------------------------------------------------------------|.
D|------------------------------------------------------------------------------------------------|.
A|------------------------------------------------------------------------------------------------|.
E|0-----------------3---3-------5---5-------3---3-------0-----------------------------------------|.

3:02

G|------------------------------------------------------------------------------------------------|
D|------------------------------------------------------------------------------------------------|
A|------------------------------------------------------------------------------------------------|
E|6-----------------------------------6---6-------------------------------------------------------|

G|--------------------------------------------------------------------------/-7-----/-7-----------|
D|------------------------------------------------------------------------------------------------|
A|------------------4---4-------6---6-------4---4-------------------------------------------------|
E|6-----------------------------------------------------6-----------------------------------------|

3:13

G|------------------------------------------------------------------------------------------------|
D|------------------------------------------------------------------------------------------------|
A|------------------------------------------------------------------------------------------------|
E|6-----------------------------------6---6-------------------------------------------------------|

G|------------------------------------------------------------------------------------------------|
D|----------------------------------------------------------------------------8-----------7---\---|
A|------------------4---4-------6---6-------4---4-------------------------------------------------|
E|6-----------------------------------------------------6-----------------6-----------5-----------|

3:24

G|----------------------------------------------------------2-------3-----------------------------|
D|------------------------------------------------------------------------------------------------|
A|------------------------------------------------3-----------------------------------------------|
E|3---------------0-------1-----------------------------------------------------------------------|

G|--------------------------------/-5-------------------------------------------------------------|
D|------------------------------------------------------------------------------------------------|
A|------------------------------------------------3-----------------------------------------------|
E|3---------------0-------1-----------------------------------------0---0-------0---1-------2-----|

3:34

G|----------------------------------------------------------2-------3-----------------------------|
D|------------------------------------------------------------------------------------------------|
A|------------------------------------------------3-----------------------------------------------|
E|3---------------0-------1-----------------------------------------------------------------------|

G|--------------------------------/-5-------------------------------------------------------------|
D|------------------------------------------------------------------------------------------------|
A|------------------------------------------------3-----------------------------------------------|
E|3---------------0-------1-----------------------------------0---0-------1---1-------2-----2-----|

3:46

G|------------------------------------------------------------------------------------------------|
D|------------------------------------------------------------------------------------------------|
A|------------------------------------------------3-----------------------------------------------|
E|3---------------0-------1-----------------------------------0---0-------1---1-------2---2-------|

G|--------------------------------/-5-----------------------------------------3---/-------5-------|
D|------------------------------------------------------------------------------------------------|
A|------------------------------------------------3-----------------------1-----------3-----------|
E|3---------------0-------1-----------------------------------------------------------------------|

G|------------------------------------------------|
D|----------------------------5-----------4-------|
A|------------------------------------------------|
E|3-----------------------3-----------2-----------|

4:00

G|------------------------------------------------------------------------------------------------|
D|------------------------------------------------------------------------------------------------|
A|------------------------------------------------------------------------------------------------|
E|0-----------------------------------------0---0-------------------------------------------------|

G|------------------------------------------------------------------------------------------------|
D|------------------------------------------------------------------------------------------------|
A|------------------------------------------------------------------------------------------------|
E|0-----------------3---3-------5---5-------3---3-------0-----------------------------------------|

4:11

G|------------------------------------------------------------------------------------------------|
D|------------------------------------------------------------------------------------------------|
A|------------------------------------------------------------------------------------------------|
E|0-----------------------------------------0---0-------------------------------------------------|

G|--------------------------------------------------------------------------/-13------13--\-------|
D|------------------------------------------------------------------------------------------------|
A|------------------------------------------------------------------------------------------------|
E|0-----------------3---3-------5---5-------3---3-------0-----------------------------------------|

4:33

G|------------------------------------------------------------------------------------------------|
D|------------------------------------------------------------------------------------------------|
A|------------------------------------------------------------------------------------------------|
E|0-----------------------------------------0---0-------------------------------------------------|

G|---------------------------------------------------------------------18-19--19-18---19--\-------|
D|------------------------------------------------------------------------------------------------|
A|------------------------------------------------------------------------------------------------|
E|0-----------------3---3-------5---5-------3---3-------0-----------------------------------------|

4:33

G|------------------------------------------------------------------------------------------------|
D|------------------------------------------------------------------------------------------------|
A|------------------------------------------------------------------------------------------------|
E|0-----------------------------------------0---0-------------------------------------------------|

G|----------------------------------------------------------------------------17---------18-------------|
D|------------------------------------------------------------------------16---------17-----------------|
A|------------------------------------------------------------------------------------------------------|
E|0-----------------3---3-------5---5-------3---3-------0-----------------------------------------0-----|
Добавлено: 21.01.2018
Другие материалы по этой песне:
  • Аккорды и текст

Страница создана 28.08.2013
http://primanota.ru/average-white-band/school-boy-crush-chords.htm
Привет, Гость.
Предлагаем пройти революционный курс по гитаре.
Подарок от PrimaNota.Ru, забирай!