PrimaNota.ru - самый крупный в мире бесплатный архив песенных текстов, аккордов, табулатур и нот


Aventura - Angelito - текст песни, таба, видео

Регистрация Запомнить меня
Войти через:  Facebook Google Twitter Vk Yandex Mail.ru

Aventura - Angelito - текст песни, таба, видео

Печатать
Просмотров: 215
Уроки эстрадного вокала в Санкт-Петербурге
Song: Angelito (Little Angel)
Track: 2
Artist: Aventura 
Album: God's Project

Tuning: Standard (EADGBe)
Distortion Level: None (Acoustic)

CHORDS (These are played throughout the whole song.)
    E     F     D
e|--0--|--1--|--2--|
B|--0--|--1--|--3--|
G|--1--|--2--|--2--|
D|--2--|--3--|--0--|
A|--2--|--1--|--x--|
E|--0--|--1--|--x--|

INTRO
                                          E  F  D
e|-------------------------------------|--0--1--2h3-3--3-3--2--|
B|-------------------------------------|--0--1--3------3-------|
G|--------1h2--2/4--4/2--2-1-----------|--1-----------------3--|
D|-----2--------------------2-2--(x4)--|--------0--------------|
A|--2-------------------------2--------|-----------------------|
E|-------------------------------------|--0--1-----------------|

CHORUS (Played behind the chorus.)
e|------2-----3--------5----7----8/7----7-------10--10-----8/7---7/--|
B|--3------5--------7-----8----10-----8-----12---12-----10-------8---|
G|-------------------------------------------------------------------|
D|-------------------------------------------------------------------|
A|-------------------------------------------------------------------|
E|-------------------------------------------------------------------|

e|------------------------------------------------------------------------|
B|---777h8-88-77-------8--------10-----12--12--108-8-------777h8-8-7h8----|
G|---------------7---7-------7----7------------------------------------7--|
D|------------------------------------------------------------------------|
A|------------------------------------------------------------------------|
E|------------------------------------------------------------------------|

e|-----2------3------5-----7-------8/7------7------10---10----8/7--7/--|
B|---3------5------7-----8-------10--------8-----12---12---10------8---|
G|---------------------------------------------------------------------|
D|---------------------------------------------------------------------|
A|---------------------------------------------------------------------|
E|---------------------------------------------------------------------|

===================
Duration Legend
===================
W - Whole
H - Half
Q - Quarter
E - 8th
S - 16th
T - 32nd
X - 64th
. - Note Dotted
|-N-| - N-tuplets
===================

===============================================
Tablature Legend
===============================================
L - Tied Note
x - Dead Note
g - Grace Note
(n) - Ghost Note
> - Accentuded Note
NH - Natural Harmonic
AH - Artificial Harmonic
TH - Tapped Harmonic
SH - Semi-harmonic
PH - Pitch Harmonic
PM - Palm Mute
h - Hammer-on
p - Pull-off
b - Bend
br - BendRelease
pb - PreBend
pbr - PreBendRelease
brb - BendReleaseBend
\n/ - Tremolo Bar Dip
\n - Tremolo Bar Dive
-/n - Tremolo Bar Release Up
/n\ - Tremolo Bar Inverted Dip
/n - Tremolo Bar Return
-\n - Tremolo Bar Release Down
S - Shift slide
s - Legato slide
/ -  Slide into from below or out of upwards
\ -  Slide into from above or out of downwards
~ - Vibrato
W - Wide Vibrato
tr - Trill
TP - Tremolo Picking
T - Tapping
S - Slap
P - Pop
< - Fade in
^ - Brush up
===============================================

Tabbed by: Roberto Aleman
E-mail: Roberto0331@gmail.com
Добавлено: 30.07.2012
Другие материалы по этой песне:
  • Аккорды и текст

Страница создана 12.06.2012
http://primanota.ru/aventura/angelito-chords.htm
Привет, Гость.
Предлагаем пройти революционный курс по гитаре.
Подарок от PrimaNota.Ru, забирай!