PrimaNota.ru - самый крупный в мире бесплатный архив песенных текстов, аккордов, табулатур и нот


Avenged Sevenfold - Warmness Of The Soul - таба, видео

Регистрация Запомнить меня
Войти через:  Facebook Google Twitter Vk Yandex Mail.ru

Avenged Sevenfold - Warmness Of The Soul - таба, видео

Печатать
Просмотров: 182
Warmness on the soul
Avenged Sevenfold
Tabbed by: David
Tuning EADGBE
IntroX2
e|-----------------------0----------------------------0--------------------------3------|
B|--------------0-----------0---------------------1-------0-------------------0------0--|
G|----------0-------------------0-------------0---------------0-----------0-------------|
D|------2--------------------------------2---------------------------0------------------|
A|--2-------------------------------3---------------------------------------------------|
E|----------------------------------------------------------------3---------------------|


		Em         C         G              D            Em
Ver1		Your hazel green tint eyes watching every move I make.
         		C          G           D
		And that feeling of doubt, it's erased.
		Em         C          G          D         Em
		I'll never feel alone again with you by my side.
          		 C           G     D
		You're the one, and in you I confide.


		Em          C                    G    D   Em
Ver2		And we have gone through good and bad times.
           		C           G        D            Em
		But your unconditional love was always on my mind.
                  		C                 G   D
		You've been there from the start for me.
		Em             C           G           D
		And your loves always been true as can be.
		C         D        Em
		I give my heart to you.
		C         D            G            Em             D        C    D
		I gave my heart, cause nothing can compare in this world to you. Woaho
    
Solo
-------------------------|-------------------------|-----------------------|
-------------------------|-------------------------|-----------------------|
-------------------------|-------------------------|-----------------------|
----------------------7--|--5--------L--7--5-------|-----------------------|
-----------0s-2-5--7-----|--------------------7s-9-|--L--7--5--5-----------|
-------------------------|-------------------------|------------------7----|

   
-------------------|---------------------------|--------------------------|
-------------------|---------------------------|--------------------------|
-------------------|--------------7s-9--7------|--------------------------|
-------------------|-----5--7--9------------9--|--9s--10--------12----14--|
--7----------------|--7------------------------|--------------------------|
-------------------|---------------------------|--------------------------|

                                                                  
-------------------------------|-------------------|---------------------------|
-------------------------------|-------------------|--------------7s-10--------|
-------------------------------|-------------------|--5s-7---------------------|
--14s--12----9--------9h-10p-9-|--7----------------|---------7------------7----|
-------------------------------|-------------------|---------------------------|
-------------------------------|-------------------|---------------------------|



-----------------------------|----------------------------|
-----------------------------|----------------------------|
-----------------------------|----------------------------|
--10s-12---10------12----14--|--14s--12--------L--12s---3-|
-----------------------------|----------------------------|
-----------------------------|----------------------------|



---------------------------------|------------------------------|
---------------------------------|------------------------------|
--12---11-------12---11---11h-12-|--14---12---11--12---11-------|
------------12-------------------|--------------------------12--|
---------------------------------|------------------------------|
---------------------------------|------------------------------|


      
---------------------------|----------------------|
---------------------------|----------------------|
---------------------------|----------------------|
--12s--14--------16--17----|--16~-----------------|
---------------------------|----------------------|
---------------------------|----------------------|

		Em          C                    G    D   Em
Ver3		And we have gone through good and bad times.
           		C           G        D            Em
		But your unconditional love was always on my mind.
                  		C                 G   D
		You've been there from the start for me.
		Em             C           G           D
		And your loves always been true as can be.
		C         D        Em
		I give my heart to you.
		C         D            G            Em             D        C   
		I gave my heart, cause nothing can compare in this world to you. 
Добавлено: 14.07.2012
Другие материалы по этой песне:

Страница создана 20.06.2012
http://primanota.ru/avenged-sevenfold/warmness-of-the-soul-chords.htm
Привет, Гость.
Предлагаем пройти революционный курс по гитаре.
Подарок от PrimaNota.Ru, забирай!