PrimaNota.ru - самый крупный в мире бесплатный архив песенных текстов, аккордов, табулатур и нот


Avenged Sevenfold - Waking The Fallen Ressurected - таба, видео

Регистрация Запомнить меня
Войти через:  Facebook Google Twitter Vk Yandex Mail.ru

Avenged Sevenfold - Waking The Fallen Ressurected - таба, видео

Печатать
Просмотров: 126
Уроки эстрадного вокала в Санкт-Петербурге
-------------------------------------------------------------------------------
                  Waking The Fallen Resurrected - Avenged Sevenfold
-------------------------------------------------------------------------------
Tabbed by: Keatsy7x
E-mail: keatsy2011@hotmail.co.uk

Tuning: Drop D ( D A D G B E ) 

e|----------------------------------------------------------------------------------|
B|----------------------------------------------------------------------------------|
G|----------------------------------------------------------------------------------|
D|-/12\--0-------------------0-------------------0-------------------0--------------|
A|-/12\--0-------------------0-------------------0-------------------0--------------|
D|-/12\--0---0-0---0--0--00000---0-0---0--0--00000---0-0---0--0--00000---0-0---0--0-|
             x x   x  x  xxxx    x x   x  x  xxxx    x x   x  x  xxxx    x x   x  x
e|----------------------------------------------------------------------------------|
B|----------------------------------------------------------------------------------|
G|----------------------------------------------------------------------------------|
D|-/12\--0-------------------0-------------------0-------------------0--------------|
A|-/12\--0-------------------0-------------------0-------------------0--------------|
D|-/12\--0---0-0---0--0--00000---0-0---0--0--00000---0-0---0--0--00000---0-0---0--0-|
             x x   x  x  xxxx    x x   x  x  xxxx    x x   x  x  xxxx    x x   x  x
e|-------------------------------------------------------------------------------|
B|-------------------------------------------------------------------------------|
G|-------------------------------------------------------------------------------|
D|--4--------2--------4--------2--------4--------2--------4--------2---------(2)-|
A|--1--------3--------1--------3--------4--------3--------1--------3---------(3)-|
D|--4--------5--------4--------5--------1--------5--------4--------5---------(5)-|

e|---------------------------------------------------------------------------|
B|-/14~~~~-12bu14bd12~~~~-14bu15---14~~~~-12bu14bd12~~~~---------------------|      
G|---------------------------------------------------------------------------|    (2X)
D|---------------------------------------------------------------------------|
A|---------------------------------------------------------------------------|
D|---------------------------------------------------------------------------|

e|-----------------------------------------------------------------------|
B|-----------------------------------------------------------------------|
G|-----------------------------------------------------------------------|
D|--2--------4--------2--------4---4--4----2--------4--------2-----------|
A|--3--------1--------3--------4---4--4----3--------1--------3-----------|
D|--5--------4--------5--------4---4--4----5--------4--------5-----------|
                               x   x  x
e|---------------------------------------------------------------------------|
B|---------------------------------------------------------------------------|
G|---------------------------------------------------------------------------|
D|--4---4--4------4---4--4------4---4--4------4---4--4----------------------|
A|--4---4--4------4---4--4------4---4--4------4---4--4----------------------|
D|--4---4--4------4---4--4------4---4--4------4---4--4----------------------|
    x   x  x      x   x  x      x   x  x      x   x  x

           ( Intro to the solo from And All Things Will End )

e|--------------------------------------------------------------------------------|
B|---------------------------------------------------------------8-7~~~-----------|
G|--3~~-2-3-/7~~-----------------------------7------------------------------------| (3X)
D|----------------/7~~--5---5--------5-8-7-8---8-7-5-4-5-7-8-7-8------------------|
A|------------------------8---8-6-------------------------------------------------|
D|--------------------------------------------------------------------------------|

e|-------------------------------------------------------------------------------------|
B|---------------------------------------------------------------8-7-8~~~~-(8~~~)------|
G|--3~~-2-3-/7~~-----------------------------7-----------------------------------------|
D|----------------/7~~--5---5--------5-8-7-8---8-7-5-4-5-7-8-7-8-----------------------|
A|------------------------8---8-6------------------------------------------------------|
D|-------------------------------------------------------------------------------------|


************************************

| /   slide up
| \   slide down
| h   hammer-on
| p   pull-off
| ~   vibrato
| +   harmonic
| x   Mute note
| bu  Bend up
| bd  Release bend 
| ()  Note carried on 
************************************
Добавлено: 09.05.2015
Другие материалы по этой песне:

Страница создана 04.12.2014
http://primanota.ru/avenged-sevenfold/waking-fallen-ressurected-chords.htm
Привет, Гость.
Предлагаем пройти революционный курс по гитаре.
Подарок от PrimaNota.Ru, забирай!