PrimaNota.ru - самый крупный в мире бесплатный архив песенных текстов, аккордов, табулатур и нот


Avenged Sevenfold - Unholy Confessions Live - таба, видео

Регистрация Запомнить меня
Войти через:  Facebook Google Twitter Vk Yandex Mail.ru

Avenged Sevenfold - Unholy Confessions Live - таба, видео

Печатать
Просмотров: 550
Новый альбом группы 'Черный Кузнец' по культовому сериалу 'Сверхъестественное'!
This is the tab for Avenged Sevenfold's Unholy Confessions live from their latest DVD 
in the LBC......like most A7X this song is tuned down to Drop D

Intro- Guitar 1
E|-------------------------------------------------------------------------|
B|-------------------------------------------------------------------------|
G|-------------------------------------------------------------------------|
D|-------------------------------------------------------------------------|
A|-00-5-0-7-0-8-0-10-0-8-0-7h8p7-----88-10-0-8-0-7~--77-7-0-8-0------00-5-0|
D|-00----------------------------10--88--------------77---------10~--00----|
PM ..                           P.H. ..              ..        P.H.  ..


Intro- Guitar 2 (slides into the first muted note)
E|-------------------------------------------------------------------------|
B|-------------------------------------------------------------------------|
G|-------------------------------------------------------------------------|
D|-------------------------------------------------------------------------|
A|-00--------------------------------88-------------77--------------00-----|
D|-00--------------------------------88-------------77--------------00-----|
PM ..                                ..             ..              ..

Intro Fill- Both Guitars
E|-----------------------|
B|-----------------------|
G|-----------------------|
D|-----------------------|
A|-88x--77x--------------|
D|-88x--77x--------------|


Intro- Guitar 1
E|-------------------------------------------------------------------------|
B|-------------------------------------------------------------------------|
G|-------------------------------------------------------------------------|
D|-------------------------------------------------------------------------|
A|-00-5-0-7-0-8-0-10-0-8-0-7h8p7-----88-10-0-8-0-7~-77-7-0-8-0-------------|
D|-00----------------------------10--88-------------77---------10~---------|
PM ..                           P.H  ..             ..         P.H

Intro- Guitar 2
E|-------------------------------------------------------------------------|
B|-------------------------------------------------------------------------|
G|-------------------------------------------------------------------------|
D|----3-0-5-0-7-0-8-0-7-0-5h7p5---------8-0-7-0-5~-----5-0-7-0-------------|
A|-00---------------------------7----88-------------77---------7~----------|
D|-00--------------------------------88-------------77---------------------|
PM ..                         P.H.   ..             ..       P.H.


Intro Fill- Both Guitars
E|----------------------|
B|----------------------|
G|----------------------|
D|----------------------|
A|-88x--77x-------------|
D|-88x--77x-------------|


Verse - Both Guitars
E|----------------------------------------------------------------------|
B|----------------------------------------------------------------------|
G|-7--------------------------------------------------------------------|
D|-7-----0------10-10\8---8\7-5/7------8-----9------5-7/7-7\3-3\2-------|x2
A|-5-----0------12-12\10-10\8-7/8------8-----9------5-7/8-8\5-5\4-------|
D|---000-0-----------------------------8-888-9--------------------------|
PM   ...                                 ...


E|------------------------------------------|
B|------------------------------------------|
G|------7-----------------3------5----5-----|
D|------7-----------------3------5----5-----|
A|------5------------1111-1-3333-3-33-3-----|
D|-0000---00000-0230------------------------|
PM ....   ..... .... ....   ....   ..


E|----------------------------------------------------------------------|
B|----------------------------------------------------------------------|
G|-7--------------------------------------------------------------------|
D|-7-----0------10-10\8---8\7-5/7------8-----9------5-7/7-7\3-3\2-------|x1
A|-5-----0------12-12\10-10\8-7/8------8-----9------5-7/8-8\5-5\4-------|
D|---000-0-----------------------------8-888-9--------------------------|
PM   ...                                 ...

Verse- Both Guitars
E|----------------------|
B|----------------------|
G|----------------------|
D|----------------------|x4
A|-00-00000-------------|
D|-00-00000-------------|
PM .. .....


E|-------------------------------------------------------------|
B|-------------------------------------------------------------|
G|-------------------------------------------------------------|
D|-----------------------------------------------------6~------|x2
A|-00-7-0-8---7-0-8---5-4~--00-7p0-8p0-12p0-13p0-12p0----------|
D|-00-------0-------0-------00---------------------------------|
PM ..       .       .       ..                        P.H.


Chorus- Both Guitars
E|-------------------------------------------------------------------------|
B|-------------------------------------------------------------------------|
G|--7-77--------5---------------------------3-3-3-3-3-3-33---7-77--------5-|
D|--7-77-0--2-3-5---3-2h3p2-0-----3x-3-3-30-3-3-3-3-3-3-33---7-77-0--2-3-5-|
A|--5-55-0--2-3-3-------------3---3x-3-3-30-1-1-1-1-1-1-11---5-55-0--2-3-3-|
D|-------0--2-3-------------------3x-3-3-30-----------------------0--2-3---|


E|-------------------------------------------------------------------------|
B|-------------------------------------------------------------------------|
G|--7-77--------5---------------------------3-3-3-3-3-3-33---7-77--------5-|
D|--7-77-0--2-3-5---3-2h3p2-0-----3x-3-3-30-3-3-3-3-3-3-33---7-77-0--2-3-5-|
A|--5-55-0--2-3-3-------------3---3x-3-3-30-1-1-1-1-1-1-11---5-55-0--2-3-3-|
D|-------0--2-3-------------------3x-3-3-30-----------------------0--2-3---|


Solo Riff- Guitar 1
E|------------------------------------------------------------------|
B|------------------------------------------------------------------|
G|------------------------------------------------------------------|
D|------------------------------------------------------------------|x2
A|-8-7-8~---5-4-5~---7-8-7~---4-5-4~---0-1-4-3-1-0---4-3-4~---------|
D|------------------------------------------------------------------|
           (second time trill the 7-8-7)

Solo Riff- Guitar 2
E|------------------------------------------------------------------|
B|------------------------------------------------------------------|
G|------------------------------------------------------------------|
D|------------------------------------------------------------------|x2
A|-12-11-12~---9-8-9~---11-12-10~---8-9-7~---4-5-8-7-5-4---8-7-8~---|
D|------------------------------------------------------------------|


Intro Riff- Guitar 1
E|-------------------------------------------------------------------------|
B|-------------------------------------------------------------------------|
G|-------------------------------------------------------------------------|
D|-------------------------------------------------------------------------|
A|-00-5-0-7-0-8-0-10-0-8-0-7h8p7-----88-10-0-8-0-7~--77-7-0-8-0------00-5-0|
D|-00----------------------------10--88--------------77---------10~--00----|
PM ..                           P.H. ..              ..        P.H.  ..


Intro Riff- Guitar 2
E|-------------------------------------------------------------------------|
B|-------------------------------------------------------------------------|
G|-------------------------------------------------------------------------|
D|-------------------------------------------------------------------------|
A|-00--------------------------------88-------------77--------------00-----|
D|-00--------------------------------88-------------77--------------00-----|
PM ..                                ..             ..              ..


Intro Fill- Both Guitars
E|-----------------------|
B|-----------------------|
G|-----------------------|
D|-----------------------|
A|-88x--77x--------------|
D|-88x--77x--------------|


Intro Riff- Guitar 1
E|-------------------------------------------------------------------------|
B|-------------------------------------------------------------------------|
G|-------------------------------------------------------------------------|
D|-------------------------------------------------------------------------|
A|-00-5-0-7-0-8-0-10-0-8-0-7h8p7-----88-10-0-8-0-7~-77-7-0-8-0-------------|
D|-00----------------------------10--88-------------77---------10~---------|
PM ..                           P.H. ..             ..        P.H.


Intro Riff- Guitar 2
E|-------------------------------------------------------------------------|
B|-------------------------------------------------------------------------|
G|-------------------------------------------------------------------------|
D|----3-0-5-0-7-0-8-0-7-0-5h7p5---------8-0-7-0-5~-----5-0-7-0-------------|
A|-00---------------------------7~---88-------------77---------7~----------|
D|-00--------------------------------88-------------77---------------------|
PM ..                          P.H.  ..             ..        P.H.


Bridge- Both Guitars
E|-----------|
B|-----------|
G|-----------|
D|--0-0-0-0--|x6
A|--0-0-0-0--|
D|--0-0-0-0--|
PM  . . . .


E|-----------------------------|
B|-----------------------------|
G|-----------------------------|
D|-0-12\11-0-10\9\8-0-7-0-6\5--|x2
A|-0-12\11-0-10\9\8-0-7-0-6\5--|
D|-0-12\11-0-10\9\8-0-7-0-6\5--|

Verse- Both Guitars
E|----------------------|
B|----------------------|
G|----------------------|
D|----------------------|x4 (4th time add extra muted 0's on the end)
A|-00-00000-------------|
D|-00-00000-------------|
PM .. .....


E|-------------------------------------------------------------|
B|-------------------------------------------------------------|
G|-------------------------------------------------------------|
D|-----------------------------------------------------6~------|x2
A|-00-7-0-8---7-0-8---5-4~--00-7p0-8p0-12p0-13p0-12p0----------|
D|-00-------0-------0-------00---------------------------------|
PM ..       .       .       ..                        P.H.

Bridge- Both Guitars
E|------------------------------|
B|------------------------------|
G|------------------------------|
D|------------------------------|x4
A|------------------------------|
D|-0-11b-0-10b-0-8b-0-7b-0-5b---|


E|------------------------------|
B|------------------------------|
G|------------------------9\6---|
D|------------------------x-x---|
A|------------------------7\4---|
D|-0-5b-0-5b-0-5~-0-3-0---------|


Chorus- Both Guitars
E|-------------------------------------------------------------------------|
B|-------------------------------------------------------------------------|
G|--7-77--------5---------------------------3-3-3-3-3-3-33---7-77--------5-|
D|--7-77-0--2-3-5---3-2h3p2-0-----3x-3-3-30-3-3-3-3-3-3-33---7-77-0--2-3-5-|
A|--5-55-0--2-3-3-------------3---3x-3-3-30-1-1-1-1-1-1-11---5-55-0--2-3-3-|
D|-------0--2-3-------------------3x-3-3-30-----------------------0--2-3---|


E|-------------------------------------------------------------------------|
B|-------------------------------------------------------------------------|
G|--7-77--------5---------------------------3-3-3-3-3-3-33---7-77--------5-|
D|--7-77-0--2-3-5---3-2h3p2-0-----3x-3-3-30-3-3-3-3-3-3-33---7-77-0--2-3-5-|
A|--5-55-0--2-3-3-------------3---3x-3-3-30-1-1-1-1-1-1-11---5-55-0--2-3-3-|
D|-------0--2-3-------------------3x-3-3-30-----------------------0--2-3---|


*before bridge while Shadows is talking just random sliding around the neck*

Bridge- Both Guitars (this part, if you want to play like syn you must only pick the 0 
then the pinch harmonic on 5, while the rest is all hammers and pulls)

E|------------------------------|
B|------------------------------|
G|------------------------------|
D|------------------------------|x8
A|------------------------------|
D|-0-11b-0-10b-0-8b-0-7b-0-5~---|
                          P.H.

Ending- Both Guitars
E|----------|
B|----------|
G|----------|
D|----------|  let the last 0 ring out
A|-0-0-0----|
D|-0-0-0----|
PM . .


And there you are Unholy Confessions changed to the way our boys in Avenged Sevenfold 
it Live in the LBC..... HAve a great time learning and ripping out this song ROCK ON!!! \m/
Добавлено: 28.04.2012
Другие материалы по этой песне:

Страница создана 28.04.2012
http://primanota.ru/avenged-sevenfold/unholy-confessions-live-chords.htm
Привет, Гость.
Предлагаем пройти революционный курс по гитаре.
Подарок от PrimaNota.Ru, забирай!