PrimaNota.ru - самый крупный в мире бесплатный архив песенных текстов, аккордов, табулатур и нот


Avenged Sevenfold - Synysters Gates Live - таба, видео

Регистрация Запомнить меня
Войти через:  Facebook Google Twitter Vk Yandex Mail.ru

Avenged Sevenfold - Synysters Gates Live - таба, видео

Печатать
Просмотров: 171
Tabbed by: grant cochran
Email: eddiecochran@bellsouth.net
      alright this isnt the whole song just like the intro and main riff and
speed picking part       im doing this because one guy did it and it wuz horrible
so i gave it a shot as my first tab

Tuning:std (low to high EADGBE)

e|------------------------------|-------------------------------------------|
B|------------------------------|-------------------------------------------|
G|------------------------------|----------3------5-------------------------|
D|------------------------------|----------3------5-------------------------|
A|---/5--3-5-8-8--5-3-0-3-------|----------1------3-------------------------|
E|------------------------------|-------------------------------------------|
      play this twice              and the end of the 2nd time do these


e|------------------------------------------|
B|------------------------------------------|
G|------------------------------------------|
D|---0000-6-00-6-7-0000-8-0000-7-0000-6-7---|
A|------------------------------------------|
E|------------------------------------------|                           play this
twice then play the next section once , and then play this section again

syn plays this part with a 5 on the A string instead of open d and the next part
a 5 on the d instead of an open g, but they are the same its just he sometimes
ties a cloth at his neck to mute open strings and that makes it to where he cant
hit an open d     do what works for you, they are identical

e|---------------------------------------------------------------------------|
B|---------------------------------------------------------------------------|
G|----0000-6-00-6-7-0000-8-0000-7-0000-6-7-----------------------------------|
D|---------------------------------------------------------------------------|
A|---------------------------------------------------------------------------|
E|---------------------------------------------------------------------------|

e|---------------------------------------------------------------------------|
B|-----------------------------------------------(5)-------------------------|
G|---------------------------------------------------------------------------|
D|--------6----6-7-6----------9----9-10-9------------------------------------|
A|---4444---44-------4--/7777---77-------------------------------------------|
E|---------------------------------------------------------------------------|
                                                   dive bomb the (5)

play this after you play the second bar the last time and the repeat this whole
tab so far as necessary in the same order ( i think you do the whole thing about three times)

e|--------------------------------------------------------------------------|
B|--------------------------------------------------------------------------|
G|------777777779999912121214141414151515151515151515151--------------------|
D|--------------------------------------------------------------------------|
A|--------------------------------------------------------------------------|
E|--------------------------------------------------------------------------|
    this is the really fast speed picking part      play just once
i may not have counted right the number if hits but these are the right frets i think

e|--------------------------------------------------------------------------|
B|--------------------------------------------------------------------------|
G|-----------12-12-15-14-13-12-15-14-13-12-15-14-13-12----------------------|
D|--------------------------------------------------------------------------|
A|--------------------------------------------------------------------------|
E|--------------------------------------------------------------------------|
play this part faster than the last and several times


well thats where you come in and tab the rest        please comment
Добавлено: 07.03.2012
Другие материалы по этой песне:

Страница создана 07.03.2012
http://primanota.ru/avenged-sevenfold/synysters-gates-live-chords.htm
Привет, Гость.
Предлагаем пройти революционный курс по гитаре.
Подарок от PrimaNota.Ru, забирай!