PrimaNota.ru - самый крупный в мире бесплатный архив песенных текстов, аккордов, табулатур и нот


Avenged Sevenfold - Synyster Gates Live - таба, видео

Регистрация Запомнить меня
Войти через:  Facebook Google Twitter Vk Yandex Mail.ru

Avenged Sevenfold - Synyster Gates Live - таба, видео

Печатать
Просмотров: 292
Уроки эстрадного вокала в Санкт-Петербурге
Avenged Sevenfold -- Synyster Clean Live Solo


[------------10------12------13---------------9----10----12----------10--------12------13--------]
[---------10----10------10-----10----------10--10----10---10-------10---10--------10------10-----]
[-------10----------10------10----10-----9--------9----9----9----10--------10--------10------10--]
[-----12-----------------------------/11----------------------/12--------------------------------]
[-/12--------------------------------------------------------------------------------------------]
[------------------------------------------------------------------------------------------------]

[----------9----10----12--------------10--------12-------13---------17--------------|
[--------10-10----10----10---------11----11-------11-------11----------14--------17-|
[------9------9-----9------9----10-----------10-------10--------10--------14--------|
[--/11-----------------------12----------------------------------------------16-----|
[-----------------------------------------------------------------------------------|
[-----------------------------------------------------------------------------------|

-------------------]
--14------------15-]
-----14-------15---]
-------16--16------]
-------------------]
-------------------]

[-15--15--/17-18-18----18----------17-----------15---------17---------17----------15---------]
[---15------------15-----15----------15----------15---------13---------13----------13--------]
[-------------------15-----15----------15---------15---------14---------14----------14-------]
[---------------------17-----17----------17---------17---------15---------15-----------15----]
[--------------------------------------------------------------------------------------------]
[--------------------------------------------------------------------------------------------]

[---13--------12-----13------12------10-----------------9-----10--12-----10-----------10---------]
[------13--------9-------9-------9--------9------------10-10---10--10----11-----------11---------]
[---------14-------9-------9-------9-------9----------9-----9----9---9---10-----------10--\------]
[-----------15-------9-------9-------9-------9----/11--------------------10-----------10---------]
[------------------------------------------------------------------------12-----------12---------]
[------------------------------------------------------------------------------------------------]

[--------------------------------------------------------------------------------------]
[-----------------------------------------------------------slower.....----------------]
[-77777777--9999--10101010--66666666--7777--9999--77777777--9999--10101010-------------]
[--------------------------------------------------------------------------------------]
[-55555555--7777--8-8-8-8---44444444--5555--7777--55555555--7777--8-8-8-8--------------]
[--------------------------------------------------------------------------------------]

[-------------------------------------5-----10/13/17/22----------------]
[----------------------------------5-----------------------------------]
[-66666666-7777-999-------------6--------------------------------------]
[----------------------------7-----------------------------------------]
[-44444444-5555-777-------5--------------------------------------------]
[----------------------0-----------------------------------------------]
Добавлено: 27.05.2012
Другие материалы по этой песне:
  • Аккорды и текст

Страница создана 27.05.2012
http://primanota.ru/avenged-sevenfold/synyster-gates-live-chords.htm
Привет, Гость.
Предлагаем пройти революционный курс по гитаре.
Подарок от PrimaNota.Ru, забирай!