PrimaNota.ru - самый крупный в мире бесплатный архив песенных текстов, аккордов, табулатур и нот


Avenged Sevenfold - Scream - текст песни, таба, бас-таба, драм-таба, видео

Регистрация Запомнить меня
Войти через:  Facebook Google Twitter Vk Yandex Mail.ru

Avenged Sevenfold - Scream - текст песни, таба, бас-таба, драм-таба, видео

Печатать
Просмотров: 596
Авторы: James Sullivan, Zackary Baker, Brian Haner, Jr., Matthew Charles Sanders

|-17-13------13-----16-13------13----18-15------15-----|
|------14--14---(X4)-----13--14--(X4)-----17--17-------|(X4)
|--------15----------------14---------------15---------|
|------------------------------------------------------|
|------------------------------------------------------|
|------------------------------------------------------|

|-17-13------13-16-13------13-------------13-17b------|
|------14--14--------13--13-------13-14-15------------|
|--------15------------14-------14--------------------|
|-----------------------------15----------------------|
|-----------------------------------------------------|
|-----------------------------------------------------|


DUAL SOLO (X4) (Rhythm same as solo above but strummed constantly)

------------------------------------------------------------------------------------|
-------------------------------------------11------------------10-------------------|
-7-9-10-7-9-10-/14----7-9-10-7-/15---14------12------------12----9-9-7-9-10-9-7-----|
-----------------------------------------------12--------12-------------------------|
-------------------------------------------------13-10-13---------------------------|
------------------------------------------------------------------------------------|

-------------------------------------------10------------------9--------------------|
-6-8-10-6-8-10-/15----6-8-10-6-/20---18------11-----------------10-8-6-8-10-8-6-----|
-----------------------------------------------12--------12-------------------------|
-------------------------------------------------12----12---------------------------|
----------------------------------------------------13------------------------------|
------------------------------------------------------------------------------------|
Добавлено: 12.04.2012
Другие материалы по этой песне:

Страница создана 22.02.2012
http://primanota.ru/avenged-sevenfold/scream-chords.htm
Привет, Гость.
Предлагаем пройти революционный курс по гитаре.
Подарок от PrimaNota.Ru, забирай!