PrimaNota.ru - самый крупный в мире бесплатный архив песенных текстов, аккордов, табулатур и нот


Avenged Sevenfold - Natural Born Killer - текст песни, таба, бас-таба, видео

Регистрация Запомнить меня
Войти через:  Facebook Google Twitter Vk Yandex Mail.ru

Avenged Sevenfold - Natural Born Killer - текст песни, таба, бас-таба, видео

Печатать
Просмотров: 428
Band:  Avenged Sevenfold (A7X)
Song:  Natural Born Killer (solo)
Album: Nightmare

I really wanted to learn the solo to this solo but I couldn't
find it, so I decided to TRY tab it myself, here you go

Not 100% sure, not even 90%, but I know it's quite accurate

Even if it's not perfect atleast it gives you guys a starting
point on what it sounds like so you can improve on it yourselfs
on how you think it sounds

Comments, Correction and Ratings are greatly appreciated!!! :)


Legend:
Hammer On:      h
Pull Off:       p
Bend Up:        BU
Pinch Harmonic: PH
Slide Up:       /
Slide Down:     \
Vibrato:        ~~~


######
#Solo#
######

E||-----------------------17----16-----------------||
B||-/15~~~-15-18-15-20-15----15----15-20-15-18p15-o||
G||------------------------------------------------||
D||------------------------------------------------||
A||-----------------------------------------------o||
D||------------------------------------------------||


1st Time
E||------------------------------------------|
B||-131415-15BU(17)~~~~-151413---------------|
G||---------------------------141312---------|
D||---------------------------------141312~~-|
A||------------------------------------------|
D||------------------------------------------|


2nd Time
E||--------------------------------------------|
B||-131415-15BU(17)-15BU(17)-15BU(17)-15BU(17)-|
G||--------------------------------------------|
D||--------------------------------------------|
A||--------------------------------------------|
D||--------------------------------------------|


(not sure on this part...)
E||-----------------------------------------------|
B||-16~~-15h16p15\13h15p13------------------------|
G||------------------------15-12------------------|
D||------------------------------15-13------------|
A||------------------------------------15-13~-----|
D||-------------------------------------------15~-|


(...or this part)
E||----------------------------------------------11-15p11-----|
B||--------------------------------------------13--------13---|
G||----------------------------12-17p12------12------------12-|
D||--------------------------13--------13--13-----------------|
A||------------------------15------------15-------------------|
D||-13~~-15-13-15/17\15-13------------------------------------|


E||-----------------------17----16----------------|
B||-/15~~~-15-18-15-20-15----15----15-20-15-18p15-|
G||-----------------------------------------------|
D||-----------------------------------------------|
A||-----------------------------------------------|
D||-----------------------------------------------|


E||-------------------131415-15BU(17)~~~-|
B||-------------131415-------------------|
G||-------121314-------------------------|
D||-121314-------------------------------|
A||--------------------------------------|
D||--------------------------------------|


Solo 2
E||--------------------------------|
B||--------------------------------|
G||-----14-15------15-14-12--14----|
D||-/15---------12--------------12-|
A||--------------------------------|
D||--------------------------------|


E||------------------------------|
B||------------------------------|
G||-----15-14-15BU(17)--17BU(19)-|
D||-/12--------------------------|
A||------------------------------|
D||------------------------------|


E||------------------------------|
B||------------------------------|
G||----15-14-12BU(14)(12)(14)~~~-|
D||-12---------------------------|
A||------------------------------|
D||------------------------------|

             PH
E||-------------------------|
B||----------13BU(15)--13~~-|
G||----15-14----------------|
D||-12----------------------|
A||-------------------------|
D||-------------------------|


E||----------------------------|
B||----15-14-12BU(14)(12)------|
G||-12--------------------12~~-|
D||----------------------------|
A||----------------------------|
D||----------------------------|


E||------------------------------|
B||------------------------------|
G||----15-14----14-15-14-15/17~~-|
D||-12-------15------------------|
A||------------------------------|
D||------------------------------|


(Really not sure on this part?!?!) ( HELP! XD )
E||------------------------------15p11--------------------11h15-15BU17~~-|
B||-------------1314151413------------13----------------13---------------|
G||-------121314----------141312--------12------------12-----------------|
D||-121314--------------------------------13--------13-------------------|
A||-----------------------------------------15p11h15---------------------|
D||----------------------------------------------------------------------|

That's all guys :)
Добавлено: 02.06.2012
Другие материалы по этой песне:

Страница создана 18.03.2012
http://primanota.ru/avenged-sevenfold/natural-born-killer-chords.htm
Привет, Гость.
Предлагаем пройти революционный курс по гитаре.
Подарок от PrimaNota.Ru, забирай!