PrimaNota.ru - самый крупный в мире бесплатный архив песенных текстов, аккордов, табулатур и нот


Avenged Sevenfold - Girl I Know - таба, бас-таба, драм-таба, видео

Регистрация Запомнить меня
Войти через:  Facebook Google Twitter Vk Yandex Mail.ru

Avenged Sevenfold - Girl I Know - таба, бас-таба, драм-таба, видео

Печатать
Просмотров: 368
GIRL I KNOW TAB

Have fun this its a somewhat difficult solo so keep practicing it :)

E---------------------------------------------------------------------|
B-------------------------13b15-13~--15-15-15-15-15-15-15-15----15----|
G------------------------------------------------------------13-------|
D-12-12-12-12-12-12-12-12---------------------------------------------|
A---------------------------------------------------------------------|
D---------------------------------------------------------------------|

E-17b19p15-16b17~-----------------------------------------------------|
B------------------------13b15-12-11-10-------------------------------|
G---------------------10----------------13----------------------------|
D------------------12----------------------12-11-10~------------------|
A---------------------------------------------------------------------|
D---------------------------------------------------------------------|

E-----------------------------------------------------------------17b19r17-|
B-------------------------13b15-13~--15-15-15-15-15-15-15-15----15---------|
G------------------------------------------------------------13------------|
D-12-12-12-12-12-12-12-12--------------------------------------------------|
A--------------------------------------------------------------------------|
D--------------------------------------------------------------------------|
-
E----------------------------------------------------------------------------|
B-15tttt/22-13tttt/23-12tttt/22-10-13-12-10----------------------------------|
G--------------------------------------------13-12-10~-----------------------|
D----------------------------------------------------------------------------|
A----------------------------------------------------------------------------|
D----------------------------------------------------------------------------|

(x2)
E-10-8----8------8--8------------------------------------------------------|
B------10---10-9------10-9--------9--9-------------------------------------|
G--------------------------10-9-7------10-9-7-9-7----7-9-10--10-7~---------|
D-------------------------------------------------/6-----------------------|
A--------------------------------------------------------------------------|
D--------------------------------------------------------------------------|

E-10-8----8------8--8---------------------------------------------/20-17~--|
B------10---10-9------10-9-----------------8-/13-10~-----13-15-18----------|
G--------------------------10-9-7~-/7-9-10------------14-------------------|
D--------------------------------------------------------------------------|
A--------------------------------------------------------------------------|
D--------------------------------------------------------------------------|

****************************************************************************

E-20b22--------------------------------------------------------------------|
B-------------------13-13-11-10-8~-----------------------------------------|
G--------------------------------------------------------------------------|
D--------------------------------------------------------------------------|
A--------------------------------------------------------------------------|
D--------------------------------------------------------------------------|

TADA! Rate ! :)
Добавлено: 21.02.2012
Другие материалы по этой песне:

Страница создана 21.02.2012
http://primanota.ru/avenged-sevenfold/girl-i-know-chords.htm
Привет, Гость.
Предлагаем пройти революционный курс по гитаре.
Подарок от PrimaNota.Ru, забирай!