PrimaNota.ru - самый крупный в мире бесплатный архив песенных текстов, аккордов, табулатур и нот


Avenged Sevenfold - Diamonds In The Rough - бас-таба, видео

Регистрация Запомнить меня
Войти через:  Facebook Google Twitter Vk Yandex Mail.ru

Avenged Sevenfold - Diamonds In The Rough - бас-таба, видео

Печатать
Просмотров: 247
Уроки эстрадного вокала в Санкт-Петербурге
Demons

Intro                 x7
G|-----------------------|-----------------------|
D|o---------------------o|-----------------------|
A|o---------------------o|-----------------------|
D|--0-30-567--0-030-567--|-0-30-567--0-030-567\\-|

Verse                                    x4
G|-------------------------------7---------|
D|o-------------------------------730-----o|
A|o----------------------------------0----o|
D|--0~0000000-3030-567-0-0000000------320--|

Pre-chorus
G|------------------------------------------------------|
D|------------------------------------------------------|
A|--------------------------1(x8)-----------------------|
D|-1(x16)--3333333-5~555555-------3(x8)-1(x16)--3(x8)-3-|

Chorus
G|---------------------------------------------------------------------|
D|---------------------------------------------------------------------|
A|-5-5-555-6-66-6666-0-0-000-1-11-1111---------------------------------|
D|-------------------------------------5274754-457-754-5274754-457-754-|
                                                    
G|----------------------------------------------------------------------|
D|----------------------------------------------------------------------|
A|-5-5-555-6-66-6666-0-0-000-1-11-1111-------------------------413-4134-|
D|-------------------------------------5274754-457-754-5274754----------|
                                                    
Verse                                    x4
G|-------------------------------7---------|
D|o-------------------------------730-----o|
A|o----------------------------------0----o|
D|--0~0000000-3030-567-0-0000000------320--|

Pre-chorus
G|------------------------------------------------------|
D|------------------------------------------------------|
A|--------------------------1(x8)-----------------------|
D|-1(x16)--3333333-5~555555-------3(x8)-1(x16)--3(x8)-3-|

Chorus
G|---------------------------------------------------------------------|
D|---------------------------------------------------------------------|
A|-5-5-555-6-66-6666-0-0-000-1-11-1111---------------------------------|
D|-------------------------------------5274754-457-754-5274754-457-754-|
                                                    
G|----------------------------------------------------------------------|
D|----------------------------------------------------------------------|
A|-5-5-555-6-66-6666-0-0-000-1-11-1111-------------------------413-4134-|
D|-------------------------------------5274754-457-754-5274754----------|

Interlude
G|------------------------------------------------------------|
D|o----------------------------------------------------------o|
A|o-5555-5-56--0000-0-01-------------------------------------o|
D|-----------------------52748754-43457543-52748754-43457543--|

Bridge 1
G|---------------------------------------------------|
D|o-------------------------------------------------o|
A|o-------------------------------------------------o|
D|--00000-00000-44444-44444-55555-55555-88888-88888--|

G|---------------------------------------------------------------|
D|---------------------------------------------------------------|
A|-5-55-55-5-55-55-0-00-00-0-00-00-1-11-11-1-11-11-3-33-33-3(x8)-|
D|---------------------------------------------------------------|

G|----------------------------------------------------------------|
D|-------------------3-33-333-------------------------------------|
A|-5-55-555-3-33-333----------1-11-111-2-22-222-3-33-333-4-44-444-|
D|----------------------------------------------------------------|

G|-----------------------------------------------------------|
D|-----------------------------------------------------------|
A|-555-5-777-7-888-8-101010-10-555-5-000-0-1(x8)-3(x8)-5~----|
D|--------------------------------------------------------7\-|

Verse                                    x4
G|-------------------------------7---------|
D|o-------------------------------730-----o|
A|o----------------------------------0----o|
D|--0~0000000-3030-567-0-0000000------320--|

Pre-chorus
G|-------------------------------------------------------|
D|-------------------------------------------------------|
A|---------------------------1(x8)-----------------------|
D|--1(x16)--3333333-5~555555-------3(x8)-1(x16)--3(x8)-3-|

Chorus
G|---------------------------------------------------------------------|
D|---------------------------------------------------------------------|
A|-5-5-555-6-66-6666-0-0-000-1-11-1111---------------------------------|
D|-------------------------------------5274754-457-754-5274754-457-754-|
                                                    
G|----------------------------------------------------------------------|
D|----------------------------------------------------------------------|
A|-5-5-555-6-66-6666-0-0-000-1-11-1111-------------------------413-4134-|
D|-------------------------------------5274754-457-754-5274754----------|

Bridge 2
G|-------|
D|-------|
A|-------|
D|-0~----|
4:33                                  x3
G|---------------9-8--------------------|
D|o--------------------------------10-8-|
A|o-54547545-5785-----54547545-5475-----|
D|--------------------------------------|
   1 + 2 +  3 + 4 +  1 + 2 +  3 + 4 +
G|-------------------------------------|
D|-55557-8--44445-7--55557-8--44445-7-o|
A|------------------------------------o|
D|-------------------------------------|

Outro                                                      x6
G|------------------------------------------------------------|
D|o----------------------------------------------------------o|
A|o-5555-5-56--0000-0-01-------------------------------------o|
D|-----------------------52748754-43457543-52748754-43457543--|
Tabbed by Dave Vucko

Girl I Know

Intro x4
G|-------------------------------------------------------------------|
D|o-----------------------------------------------------------------o|
A|o---------------------------3585----------------------------------o|
D|--00003-00005-------03560356------00003-00005-----------6-5-3------|
    1 + 2 + 3 + 4 + 1 + 2 + 3 + 4 + 1 + 2 + 3 + 4 + 1 + 2 + 3 + 4 +
Verse 0:27
G|-----------------------------------------------------------------|
D|-----------------------------------------------------------------|
A|-----------------------------------------------------------------|
D|-0-0---0-0-0---0-0-0---0-0-0---0-0-0---0-0-0---0-0---3---5---6---|
   1 + 2 + 3 + 4 + 1 + 2 + 3 + 4 + 1 + 2 + 3 + 4 + 1 + 2 + 3 + 4 +

G|-----------------------------------------------------------------|
D|-----------------------------------------------------------------|
A|-----------------------------------------------------------------|
D|-0-0---0-0-0---0-0-0---0-0-0---0-0-0---0-0-0---0/12--10--6---5---|
   1 + 2 + 3 + 4 + 1 + 2 + 3 + 4 + 1 + 2 + 3 + 4 + 1 + 2 + 3 + 4 +

G|---------------------------------|
D|---------------------------------|
A|---------------------------------|
D|-0-0/6660-00/66660-0/6660-00/12--|
   1 + 2 + 3 + 4 + 1 + 2 + 3 + 4 + 
0:45
G|-----------------------------------------------------------------|
D|-----------------------------------------------------------------|
A|-----------------------------------------------------------------|
D|-0-0---0-0-0---0-0-0---0-0-0---0-0-0---0-0-0---0-0---3---5---6---|
   1 + 2 + 3 + 4 + 1 + 2 + 3 + 4 + 1 + 2 + 3 + 4 + 1 + 2 + 3 + 4 +

G|-----------------------------------------------------------------|
D|-----------------------------------------------------------------|
A|-----------------------------------------------------------------|
D|-0-0---0-0-0---0-0-0---0-0-0---0-0-0---0-0-0---0/12--10--6---5---|
   1 + 2 + 3 + 4 + 1 + 2 + 3 + 4 + 1 + 2 + 3 + 4 + 1 + 2 + 3 + 4 +

Pre Chorus 1:00
G|------------------------------------------------------------------|
D|------------------------------------------------/1010101010101010-|
A|-1---1-1---1-1-1-1---1---1---1-1-3---3-3---3-3-3------------------|
D|------------------------------------------------------------------|
   1 + 2 + 3 + 4 + 1 + 2 + 3 + 4 + 1 + 2 + 3 + 4 + 1 + 2 + 3 + 4 +

Chorus 1:07
G|-------------------------------------------------------------------|
D|o-----------------------------------------------------------------o|
A|o---------------------------------1-1-1-1-1-1-1-1-3-3-3-3-3-3-3-3-o|
D|--00003-00005------------/1010h12----------------------------------|
    1 + 2 + 3 + 4 + 1 + 2 + 3 +  4 + 1 + 2 + 3 + 4 + 1 + 2 + 3 + 4 +

G|-----------------------------------------------------------------|
D|-----------------------------------------------------------------|
A|-4-4-4-4-4-4-4-4-5---5-5-3---3-3-1-1-1-1-1-1-1-1-3-3-3-3-3-3-3-3-|
D|-----------------------------------------------------------------|
   1 + 2 + 3 + 4 + 1 + 2 + 3 + 4 + 1 + 2 + 3 + 4 + 1 + 2 + 3 + 4 +
G|---------------------------------|
D|---------------------------------|
A|---------------------------------|
D|-0-0/6660-00/66660-0/6660-00/12--|
   1 + 2 + 3 + 4 + 1 + 2 + 3 + 4 + 

Verse 1:32
G|-----------------------------------------------------------------|
D|-----------------------------------------------------------------|
A|-----------------------------------------------------------------|
D|-0-0---0-0-0---0-0-0---0-0-0---0-0-0---0-0-0---0-0---3---5---6---|
   1 + 2 + 3 + 4 + 1 + 2 + 3 + 4 + 1 + 2 + 3 + 4 + 1 + 2 + 3 + 4 +

G|-----------------------------------------------------------------|
D|-----------------------------------------------------------------|
A|-----------------------------------------------------------------|
D|-0-0---0-0-0---0-0-0---0-0-0---0-0-0---0-0-0---0/12--10--6---5---|
   1 + 2 + 3 + 4 + 1 + 2 + 3 + 4 + 1 + 2 + 3 + 4 + 1 + 2 + 3 + 4 +

G|---------------------------------|
D|---------------------------------|
A|---------------------------------|
D|-0-0/6660-00/66660-0/6660-00/12--|
   1 + 2 + 3 + 4 + 1 + 2 + 3 + 4 + 
1:50
G|-----------------------------------------------------------------|
D|-----------------------------------------------------------------|
A|-----------------------------------------------------------------|
D|-0-0---0-0-0---0-0-0---0-0-0---0-0-0---0-0-0---0-0---3---5---6---|
   1 + 2 + 3 + 4 + 1 + 2 + 3 + 4 + 1 + 2 + 3 + 4 + 1 + 2 + 3 + 4 +

G|-----------------------------------------------------------------|
D|-----------------------------------------------------------------|
A|-----------------------------------------------------------------|
D|-0-0---0-0-0---0-0-0---0-0-0---0-0-0---0-0-0---0/12--10--6---5---|
   1 + 2 + 3 + 4 + 1 + 2 + 3 + 4 + 1 + 2 + 3 + 4 + 1 + 2 + 3 + 4 +

Pre Chorus 2:04
G|------------------------------------------------------------------|
D|------------------------------------------------/1010101010101010-|
A|-1---1-1---1-1-1-1---1---1---1-1-3---3-3---3-3-3------------------|
D|------------------------------------------------------------------|
   1 + 2 + 3 + 4 + 1 + 2 + 3 + 4 + 1 + 2 + 3 + 4 + 1 + 2 + 3 + 4 +

Chorus 2:12
G|-------------------------------------------------------------------|
D|o-----------------------------------------------------------------o|
A|o---------------------------------1-1-1-1-1-1-1-1-3-3-3-3-3-3-3-3-o|
D|--00003-00005------------/1010h12----------------------------------|
    1 + 2 + 3 + 4 + 1 + 2 + 3 +  4 + 1 + 2 + 3 + 4 + 1 + 2 + 3 + 4 +

G|------------------------------------------------------------------|
D|------------------------------------------------------------------|
A|-4-4-4-4-4-4-4-4-5---5-5-3---3-3-1-1-1-1-1-1-1-1-3-3-3-3-33333333-|
D|------------------------------------------------------------------|
   1 + 2 + 3 + 4 + 1 + 2 + 3 + 4 + 1 + 2 + 3 + 4 + 1 + 2 + 3 + 4 +

Solo 2:32
G|-----------------------------------------------------------------|
D|-----------------------------------------------------------------|
A|-----------------------------------------------------------------|
D|-0-0/6660-00/66660-0/6660-00/66660-0/6660-00/66660-0/6660-00/12--|
   1 + 2 + 3 + 4 + 1 + 2 + 3 + 4 + 1 + 2 + 3 + 4 + 1 + 2 + 3 + 4 + 

2:40
G|-----------------------------------------------------------------|
D|-----------------------------------------------------------------|
A|-----------------------------------------------------------------|
D|-0-0--00-0-0--00-0-0--00-0-0--00-0-0--00-0-0--00-0---3---5---6---|
   1 + 2 + 3 + 4 + 1 + 2 + 3 + 4 + 1 + 2 + 3 + 4 + 1 + 2 + 3 + 4 +

G|-----------------------------------------------------------------|
D|-----------------------------------------------------------------|
A|-----------------------------------------------------------------|
D|-0-0--00-0-0--00-0-0--00-0-0--00-0-0--00-0-0--00/12--10--6---5---|
   1 + 2 + 3 + 4 + 1 + 2 + 3 + 4 + 1 + 2 + 3 + 4 + 1 + 2 + 3 + 4 +

G|-----------------------------------------------------------------|
D|-----------------------------------------------------------------|
A|-----------------------------------------------------------------|
D|-0-0--00-0-0--00-0-0--00-0-0--00-0-0--00-0-0--00-0---3---5---6---|
   1 + 2 + 3 + 4 + 1 + 2 + 3 + 4 + 1 + 2 + 3 + 4 + 1 + 2 + 3 + 4 +

G|-----------------------------------------------------------------|
D|-----------------------------------------------------------------|
A|-----------------------------------------------------------------|
D|-0-0--00-0-0--00-0-0--00-0-0--00-0-0--00-0-0--00/12--10--8---6-5-|
   1 + 2 + 3 + 4 + 1 + 2 + 3 + 4 + 1 + 2 + 3 + 4 + 1 + 2 + 3 + 4 +

G|------------------------------------------------------------------|
D|------------------------------------------------/1010101010101010-|
A|---------------------------------3---3-3---3-3-3------------------|
D|-8---8-8---8-8-8-8---8---8---8-8----------------------------------|
   1 + 2 + 3 + 4 + 1 + 2 + 3 + 4 + 1 + 2 + 3 + 4 + 1 + 2 + 3 + 4 +

Breakdown 3:15
G|-----------------------------------------------------------------|
D|-----------------------------------------------------------------|
A|-----------------------------------------------------------------|
D|-0-0-0-0-0-0-0-0-0-0-0-0-0-0-0-0-0-0-0-0-0-0-0-0-0-0-0-0-0-0-0-0-|
   1 + 2 + 3 + 4 + 1 + 2 + 3 + 4 + 1 + 2 + 3 + 4 + 1 + 2 + 3 + 4 +

G|-----------------------------------------------------------------|
D|-----------------------------------------------------------------|
A|-----------------------------------------------------------------|
D|-0-0-0-0-0-0-0-0-0-0-0-0-0-0-0-0-7-7-7-7-7-7-7-7-7-7-7-7-7-7-7-7-|
   1 + 2 + 3 + 4 + 1 + 2 + 3 + 4 + 1 + 2 + 3 + 4 + 1 + 2 + 3 + 4 +

G|-----------------------------------------------------------------|
D|-----------------------------------------------------------------|
A|---------------------------------3-3-3-3-3-3-3-3-3-3-3-3-3-3-3-3-|
D|-8-8-8-8-8-8-8-8-8-8-8-8-8-8-8-8---------------------------------|
   1 + 2 + 3 + 4 + 1 + 2 + 3 + 4 + 1 + 2 + 3 + 4 + 1 + 2 + 3 + 4 +

G|-----------------------------------------------------------------|
D|-----------------------------------------------------------------|
A|-----------------------------------------------------------------|
D|-12\\\\\-------------------------0-0/6660-00/66660-0/6660-00/12--|
   1 + 2 + 3 + 4 + 1 + 2 + 3 + 4 + 1 + 2 + 3 + 4 + 1 + 2 + 3 + 4 + 

Chorus 3:44
G|-------------------------------------------------------------------|
D|o-----------------------------------------------------------------o|
A|o---------------------------------1-1-1-1-1-1-1-1-3-3-3-3-3-3-3-3-o|
D|--00003-00005------------/1010h12----------------------------------|
    1 + 2 + 3 + 4 + 1 + 2 + 3 +  4 + 1 + 2 + 3 + 4 + 1 + 2 + 3 + 4 +

G|------------------------------------------------------------------|
D|------------------------------------------------------------------|
A|-4-4-4-4-4-4-4-4-5---5-5-3---3-3-1-1-1-1-1-1-1-1-3-3-3-3-33333333-|
D|------------------------------------------------------------------|
   1 + 2 + 3 + 4 + 1 + 2 + 3 + 4 + 1 + 2 + 3 + 4 + 1 + 2 + 3 + 4 +

Outro 4:04
G|-----------------------------------------------------------------|
D|-----------------------------------------------------------------|
A|-----------------------------------------------------------------|
D|-0-0---0-0-0---0-0-0---0-0-0---0-0-0---0-0-0---0-0---3---5---6---|
   1 + 2 + 3 + 4 + 1 + 2 + 3 + 4 + 1 + 2 + 3 + 4 + 1 + 2 + 3 + 4 +

G|---------------------------------------------------------------------|
D|---------------------------------------------------------------------|
A|---------------------------------------------------------------------|
D|-0-0---0-0-0---0-0-0---0-0-0-0-0-0-0---0-0-0---0/12--10--6---5---0-0-|
   1 + 2 + 3 + 4 + 1 + 2 + 3 + 4 + 1 + 2 + 3 + 4 + 1 + 2 + 3 + 4 + 
Tabbed by Dave Vucko

Crossroads

Intro 0:03                                     x3
G|-----|----------------------------------------|-----------|
D|-----|o--------------------------------------o|-----------|
A|-----|o--------------------------------------o|-----------|
D|-0~~-|--5h6-0-0-0-0-0-0-0-0-0-0-0-0-00000000--|-/8~~7-5-3-|

Verse 0:27
G|-------------------------------------------------------------------------------|
D|-------------------------------------------------------------------------------|
A|-------------------------------------------------------------------------------|
D|-5h6-0(x12)-76-7-6-7-5h6-0(x12)-76-7-5-6-5h6-0(x12)-6-7-5-7-5h6-0(x12)-6-7-6-7-|   

G|-------------------------------------------------------------------------------|
D|-------------------------------------------------------------------------------|
A|-------------------------------------------------------------------------------|
D|-5h6-0(x12)-76-7-6-7-5h6-0(x12)-76-7-5-6-5h6-0(x12)-12(x4)-5h6-0(x8)-12(x6)-76-|

Pre Chorus 0:48
G|-----------------|
D|-----------------|
A|-------8~7~------|
D|-8~~7~~----3-5-7-|

Chorus 0:53
G|------------------------------------------------------------|
D|------------------------------------------------------------|
A|---------------0(x12)-1(x16)---------------0(x12)-1-01310-0-|
D|-5(x12)-3(x16)---------------5(x12)-3(x16)---------------5--|

G|------------------------------------------------------------|
D|------------------------------------------------------------|
A|---------------0(x12)-1-7~54310---------------0(x12)-1(x16)-|
D|-5(x12)-3(x16)------------------5(x12)-3(x16)---------------|

*Break*

Verse 1:17
G|-------------------------------------------------------------------------------|
D|-------------------------------------------------------------------------------|
A|-------------------------------------------------------------------------------|
D|-5h6-0(x12)-76-7-6-7-5h6-0(x12)-76-7-5-6-5h6-0(x12)-6-7-5-7-5h6-0(x12)-6-7-6-7-|   

G|-------------------------------------------------------------------------------|
D|-------------------------------------------------------------------------------|
A|-------------------------------------------------------------------------------|
D|-5h6-0(x12)-76-7-6-7-5h6-0(x12)-76-7-5-6-5h6-0(x12)-12(x4)-5h6-0(x8)-12(x6)-76-|

Pre Chorus 1:39
G|-----------------|
D|-----------------|
A|-------8~7~------|
D|-8~~7~~----3-5-7-|

Chorus 1:44
G|------------------------------------------------------------|
D|------------------------------------------------------------|
A|---------------0(x12)-1(x16)---------------0(x12)-1-01310-0-|
D|-5(x12)-3(x16)---------------5(x12)-3(x16)---------------5--|

G|---------------------------------------------------------------|
D|---------------------------------------------------------------|
A|---------------0(x12)-1-7~54310---------------0(x12)-1/13(x10)-|
D|-5(x12)-3(x16)------------------5(x12)-3(x16)------------------|

Bridge 2:05
G|-------------------------------------------------------------------|
D|o-----------------------------------------------------------------o|
A|o-5-8-7-5-4-5---------5-8-7-5-4-5---------1(x8)-2(x8)-3(x8)-4(x8)-o|
D|--------------000-000-------------000-000--------------------------|

2:27
G|---------------------------------------------------------------------------|
D|---------------------------------------------------------------------------|
A|----------------------------5~10~810----------------------------6561076510-|
D|-1111~111-1111~111-5555~555----------1111~111-1111~111-5555~555------------|

G|-------------------------------------|
D|-------------------------------------|
A|-------------------------------------|
D|-1111~111-1111~111-5555~555-5555~555-|

G|-------------------------------------|
D|o-------------------33333-----------o|
A|o-11111111-00000000-------5~5555555-o|
D|-------------------------------------|

2:54
G|--------------------------------------------------------------|
D|---------3332~23---------3-2-3----------3332~23---------------|
A|-3~33~33---------1~11~11--------3~33~33---------1~11~11-------|
D|--------------------------------------------------------3-2-3-|

G|----------------------------------------------------------------|
D|---------3332~23------------------------------------------------|
A|-3~33~33---------1~11~11~1~11~11~-1(x16)-2(x16)-3(x16)-4(x16)---|
D|--------------------------------------------------------------0-|

*Break*

Solo 3:25              x8
G|-----------------------|          
D|o---------------------o|          
A|o---------------------o|          
D|--5h6-0(x12)-00000000--|    

Chorus 3:50
G|------------------------------------------------------------|
D|------------------------------------------------------------|
A|---------------0(x12)-1(x16)---------------0(x12)-1-01310-0-|
D|-5(x12)-3(x16)---------------5(x12)-3(x16)---------------5--|

G|------------------------------------------------------------|
D|------------------------------------------------------------|
A|---------------0(x12)-1-7~54310---------------0(x12)-1(x16)-|
D|-5(x12)-3(x16)------------------5(x12)-3(x16)---------------|

Outro 4:11            x4
G|----------------------|-----------------------|
D|o--------------------o|-----------------------|
A|o--------------------o|-----------------------|
D|--5h6-0(x12)-/12(x8)--|-8~~~7-5-3-000-000-000-|
Tabbed by Dave Vucko

Flash Of The Blade (Iron Maiden Cover)

Intro 0:16
G|------------------------|
D|o-7~--8~-5~--7~--3~-5~-o|
A|o-5~--6~-3~--5~--1~-3~-o|
D|------------------------|

Verse 0:33
G|----------------------------------------------|
D|o-----------------------------320------------o|
A|o-0(x16)--3(x8)-2(x8)-1(x16)-----32100-0(x7)-o|
D|----------------------------------------------|

Chorus 0:50
G|---------------------------------------------------------------------|
D|o--------------------6-67-9-9976------------------------------------o|
A|o-5-55-55-5-54-45-7-7-----------7-3-33-33-3-32-23-----------7-77-77-o|
D|--------------------------------------------------5-55-4-44----------|

Pre Verse 1:07
G|----7---7---7---7---8---8---5---5---7---7---7---7---3---3---5---5--|
D|o--7-7-7-7-7-7-7-7-8-8-8---5-5-5---7-7-7-7-7-7-7-7-3-3-3---5-5-5--o|
A|o-5---5---5---5---6---6---3---3---5---5---5---5---1---1---3---3---o|
D|-------------------------------------------------------------------|

G|----7---7---7---7---8---8---5---5---7---7---7---7---3---3---5---5--|
D|o-07-707-707-707-7-8-8-8---5-5-5--07-707-707-707-7-3-3-3---5-5-5--o|
A|o-----------------6---6---3---3-------------------1---1---3---3---o|
D|-------------------------------------------------------------------|

Verse 1:24
G|----------------------------------------------|
D|o-----------------------------320------------o|
A|o-0(x16)--3(x8)-2(x8)-1(x16)-----32100-0(x7)-o|
D|----------------------------------------------|

Chorus 1:41
G|---------------------------------------------------------------------|
D|o--------------------6-67-9-9976------------------------------------o|
A|o-5-55-55-5-54-45-7-7-----------7-3-33-33-3-32-23-----------7-77-77-o|
D|--------------------------------------------------5-55-4-44----------|

Pre Solo 1:58 (this part is really fast)                                 
G|-----------------------------------|--------------------------------------|
D|-7-6-7-6-10-9-7-6-7-6-7-6-10-9-7-6-|-6-5-6-5-10-9-7-5--12-10-8-7--9-8-7-6-| x4
A|-----------------------------------|--------------------------------------|
D|-----------------------------------|--------------------------------------|

Sol0 2:15
G|-----7~-7------7~-7----7~-7----7~-7----9~-9---9~-9---9~-9--9~97----|
D|-------7---------7-------7-------7-------9------9------9-------976-|
A|-5~5------5~5-------5~------5~------7~------7~----97~--------------|
D|-------------------------------------------------------------------|

G|----5~-5----5~-5----5~-5----5~-5----7~-7----7~-7----7~-7--7-------|
D|------5-------5-------5-------5-------7-------7-------7-----87875-|
A|-3~------3~------3~------3~------5~------5~------5~---------------|
D|------------------------------------------------------------------|
  
G|----7~-7----7~-7----7~-7--7~----------9~----9~------9~--------------|
D|------7-------7-------7-----989878------98----98------98--109879876-|
A|-5~------5~------5~----------------7~------7~-----7~----------------|
D|--------------------------------------------------------------------|
  
G|----5~-5----5~-5----5~-5----5~-5----7~-7----7~-7----7~-7--7~-------|
D|------5-------5-------5-------5-------7-------7-------7-----7875---|
A|-3~------3~------3~------3~------5~------5~------5~-------------7~-|
D|-------------------------------------------------------------------|

Breakdown 2:49 x4
G|-----------|
D|o---------o|
A|o-0--2--7-o|
D|-----------|

Chorus 3:06 x4
G|----------------------------------------------------------------------|
D|o--------------------6-67-9-9976-------------------------------------o|
A|o-5-55-55-5-54-45-7-7-----------7-3-33-33-3-32-23------------7-77-77-o|
D|--------------------------------------------------5-55-4-44-----------|

Outro 3:40
G|----7---7---7---7---8---8---5---5---7---7---7---7---3---3---5---5--|----|
D|o--7-7-7-7-7-7-7-7-8-8-8---5-5-5---7-7-7-7-7-7-7-7-3-3-3---5-5-5--o|----|
A|o-5---5---5---5---6---6---3---3---5---5---5---5---1---1---3---3---o|-5\-|
D|-------------------------------------------------------------------|----|
Tabbed by Dave Vucko

Until The End

G|-------------------------|------------------|
D|o-----------------------o|------------------|
A|o-----------------2(x4)-o|------------------|
D|--4(x16)--0(x12)---------|-3-3-3-3-3-3-3333-|

Verse 0:29
G|------------------------------------------|
D|------------------------------------------|
A|------------------------------------------|
D|-4444\2222/7777/999-11\4444\2222\00000000-|

G|------------------------------------------|
D|------------------------------------------|
A|------------------------------------------|
D|-4444\2222/7777/999-11\4444\2222\00006677-|~

Pre-Chorus 0:53
G|------------------|
D|------------------|
A|------------------|
D|-2(x8)-3(x6)-3565-|

Chorus 0:59
G|------------------------------------------------------------------------|
D|o----------------------------------------------------------------------o|
A|o----------------------------------------------------2--2-2-2-5-4-540--o|
D|--4-4-4-4-4-4-44---0--0-0-0-00-0-0000--2-2-2-22-22-2-----------------5--|

G|-----------------------|
D|-----------------------|
A|-----------------2(x4)-|
D|--4(x16)--0(x12)-------|

Verse 1:35
G|------------------------------------------|
D|------------------------------------------|
A|------------------------------------------|
D|-4444\2222/7777/999-11\4444\2222\00000000-|

G|------------------------------------------|
D|------------------------------------------|
A|------------------------------------------|
D|-4444\2222/7777/999-11\4444\2222\00006677-|~

Pre-chorus 1:59
G|------------------|
D|------------------|
A|------------------|
D|-2(x8)-3(x6)-3565-|

Chorus 2:05
G|------------------------------------------------------------------------|
D|o----------------------------------------------------------------------o|
A|o----------------------------------------------------2--2-2-2-5-4-540--o|
D|--4-4-4-4-4-4-44---0--0-0-0-00-0-0000--2-2-2-22-22-2-----------------5--|

Breakdown 2:29
G|-----------------------------------|
D|o---------------------------------o|
A|o-----------------4~~~~~----------o|
D|--4~~~~~3~~~~~~~~~------0~~~~~~~~~-|
    1 2 3 4 1 2 3 4 1 2 3 4 1 2 3 4 

Guitar Solo 2:41         x3
G|-------------------------|-------------------------|
D|o-----------------------o|-------------------------|
A|o-----4-5--2-2---5-4----o|-----4-5--2-2---544-5444-|
D|--4-------------------4--|-4-----------------------|

Bridge 3:05
G|----------------------------------------------|
D|----------------------------------------------|
A|----------------------------------------------|
D|-4444-6666-7777-9999-4444-2222-7777-99-10(x4)-|

Bridge/Solo 3:17                   x8
G|-----------------------------------|
D|o---------------------------------o|
A|o-----------------4~~~~~----------o|
D|--4~~~~~3~~~~~~~~~------0~~~~~~~~~-|
    1 2 3 4 1 2 3 4 1 2 3 4 1 2 3 4 
3:53
G|----------------------------------------------------------|
D|----------------------------------------------------------|
A|------------3---3-33-3-33-3/5-5-55-5--7--7-7-7-7-7-7-7/2~-|
D|-4-4-44-44------------------------------------------------|

Outro 4:08
G|---------------------------------|---------------------|
D|o-------------------------------o|---------------------|
A|o-3-3-3-3-3-3-3-2-2-2-2-2-2-2-2-o|-3-3-3-3-3-3-3-2~~~~-|
D|---------------------------------|---------------------|
Tabbed by Dave Vucko

Tension

Intro
G|-------------------------------------------------|
D|o-----------------------------------------------o|
A|o-----------------------------------------------o|
D|--00-000---00-0-0-00-00---00-000---00-0-0-00-00--|

Verse 0:24
G|-------------------------------------------------|-----------------|
D|o-----------------------------------------------o|-0-12-10-9-7-5-3-|
A|o-----------------------------------------------o|-----------------|
D|--00-000---00-0-0-00-00---00-000---00-0-0-00-00--|-----------------|

Chorus 0:47
G|------------------------------------------------------------------------|
D|------------------------------------------------------------------------|
A|-5(x16)-4(x16)-3(x16)-2(x16)-1(x16)-8(x16)-0(x16)-0(x4)-10(x4)-8(x4)-7--|
D|------------------------------------------------------------------------|

G|-------------------------------------------------------------|
D|-------------------------------------------------------------|
A|-5(x16)-4(x16)-3(x16)-10(x16)-1(x16)-8(x16)-0(x16)-7\3/10~~--|
D|-------------------------------------------------------------|

Verse 1:15
G|-------------------------------------------------|----------------|
D|o-----------------------------------------------o|-0-12-7-5-3-5-7-|
A|o-----------------------------------------------o|----------------|
D|--00-000---00-0-0-00-00---00-000---00-0-0-00-00--|----------------|

Chorus 1:38
G|------------------------------------------------------------------------|
D|------------------------------------------------------------------------|
A|-5(x16)-4(x16)-3(x16)-2(x16)-1(x16)-8(x16)-0(x16)-0(x4)-10(x4)-8(x4)-7--|
D|------------------------------------------------------------------------|

G|-------------------------------------------------------------|
D|-------------------------------------------------------------|
A|-5(x16)-4(x16)-3(x16)-10(x16)-1(x16)-8(x16)-0(x16)-7\3/10~~--|
D|-------------------------------------------------------------|

Breakdown 2:06
G|------------------------------|
D|------------------------------|
A|------------------------------|
D|-0~~~~~~0~~~~~~0~~~~~~0~~~~~~-|

Bridge 2:20
G|---------------------------------------------------------------------------------------|
D|---------------------------------------------------------------------------------------|
A|--------------3-3-3--33-3-3-356-6-6--66-6-65321-111111-1-13101----------------5~3~1~~~-|
D|-3~~~33-3-3--3-------------------------------------------------3-3-3--33-3-3-----------|

2:42
G|----------------------------------------------------------------------------------------|
D|------------------------------------------86--------------------------------------------|
A|--------------3-3-3--33-3-32356-6-6--6p568--86-111111-1-13101----------------5~3~1~~~1~-|
D|-3~~~33-3-3--3------------------------------------------------3-3-3--33-3-3-------------|

Solo
3:05
G|----------------------------------------------------------------------------------------|
D|----------------------------------------------------------------------------------------|
A|--------------3-3-3--33-3-32356-6-6--66-6-65321-1-1--11-131013----------------5~3~1~~1~~|
D|-3~~~33-3-3--3-------------------------------------------------3-3-3--33-3-3------------|

3:27
G|-------------------------------------------|
D|-------------------------------------------|
A|-3-3-3--33-3-3--3-----------------5-5(x15)-|
D|-----------------5-5-5--55-5-5555----------|

Outro 3:37
G|-------------------------------------------------------------------------|
D|o------------------------------------------------------------------------|
A|o-5(x16)-4(x16)-3(x16)-2(x16)-1(x16)-8(x16)-0(x16)-0(x4)-10(x4)-8(x4)-7--|
D|-------------------------------------------------------------------------|

G|---------------------------------------------------------------|
D|--------------------------------------------------------------o|
A|-5(x12)-8-4(x16)-3(x16)-10(x16)-1(x16)-8(x16)-0(x16)-7\3/10~~-o|
D|---------------------------------------------------------------|
Tabbed by Dave Vucko

Walk (Pantera Cover)

Intro
G|--------------------------------------------------------------------|
D|--------------------------------------------------------------------|
A|--------------------------------------------------------------------|
D|-----0(x18)---/6\/8\---0--010--010--010--010--010--010--010--/6\/8\-|

G|---------------------------------------------------|--------------|
D|o-------------------------------------------------o|--------------|
A|o----------0--------------------------------------o|--------------|
D|--0--010--0---0--010--05--0--010--04-000103040301--|-000103040301-|

Verse 0:34
G|----------------------------------------------|
D|o--------------------------------------------o|
A|o----------------------------------------4-4-o|
D|--0--010--010--010--010--010--010--010--------|

Pre-chorus 0:51
G|----------------------------------|-----------------|
D|o--------------------------------o|-----------------|
A|o-2------------------------------o|-2---------------|
D|------5--6--0--010--010--010--01--|-----5---2---1-0-|

Chorus 1:16
G|---------------------------------------------------|--------------|
D|o-------------------------------------------------o|--------------|
A|o----------0--------------------------------------o|--------------|
D|--0--010--0---0--010--05--0--010--04-000103040301--|-000103040301-|

1:35
G|-----------------------------------------------|
D|-----------------------------------------------|
A|-----------------------------------------------|
D|-0--010--010--010--010--010--010--010--/6\/8\--|

Verse 1:42
G|----------------------------------------------|
D|o--------------------------------------------o|
A|o----------------------------------------4-4-o|
D|--0--010--010--010--010--010--010--010--------|

Pre-chorus 1:58
G|----------------------------------|-----------------|
D|o--------------------------------o|-----------------|
A|o-2------------------------------o|-2---------------|
D|------5--6--0--010--010--010--01--|-----5---2---1-0-|

Chorus 2:24                                       x4               x3
G|---------------------------------------------------|----------------|
D|o-------------------------------------------------o|o--------------o|
A|o----------0--------------------------------------o|o--------------o|
D|--0--010--0---0--010--05--0--010--04-000103040301--|--000103040301--|

Guitar Solo 3:02
G|-----------------------------------------------------------------|
D|-----------------------------------------------------------------|
A|---------------------------------------------------------530-0---|
D|-000-103-000-103-000-100-3-2-/8\-000-103-000-103-000-300------53-|

G|----------------------------------------------------------------------|
D|----------------------------------------------------------------------|
A|----------------------------------------------------------------------|
D|-000-033-000-033-000-000-3-2-/8\-000-033-000-033-000-000/121212121212-|

3:17
G|----------------------------------------------------------------------|
D|----------------------------------------------------------------------|
A|--------------------------------------------------------/101010101010-|
D|-555-555-585-857-555-555-8-5-/8\-555-555-585-857-555-555--------------|

G|------------------------------------------------------------------------|
D|------------------------------------------------------------------------|
A|--00-300--00-300--00-300-1-0-0---00-300--00-300--00-000/121212121212----|
D|-5-------5-------5-------------5--------5-------5--------------------0~-|

*two bar rest*
3:39
G|--------------------------------|
D|--------------------------------|
A|--------------------------------|
D|-000-000-000-000-000-000-/6\/8\-|

Chorus 4:43                                        x4
G|---------------------------------------------------|----------------|
D|o-------------------------------------------------o|o--------------o|
A|o----------0--------------------------------------o|o--------------o|
D|--0--010--0---0--010--05--0--010--04-000103040301--|--000103040301--|

Outro repeat & fade
|-------------------|
|o-----------------o|
|o-----------------o|
|--000-1-0-000-1-0--|
Tabbed by Dave Vucko

The Fight

Intro
G|-------------------------------------------|
D|---------------------------------85--------|
A|-----------08-5(x16)-----------45----------|
D|-0(x12)--36-----------5(x12)--8----5(x15)--|

G|----------------------------------------------------|
D|------------------------------5-3-2---5-3-2---------|
A|-1(x16)---1(x16)---3(x16)---33-------3------5~------|
D|------------------------------------------------6~--|

Verse 0:21
G|---------------------------------------------------|
D|o-------------------------------------------------o|
A|o-5(x8)-0(x8)-1(x8)-------------------0(x8)-1(x8)-o|
D|--------------------6(x8)-5(x8)-3(x8)--------------|

0:40
G|------------------------------------------------|
D|------------------------------------------------|
A|-5(x14)-33-1(x8)-1-0-1-8-5(x16)--3(x16)--1(x16)-|
D|------------------------------------------------|

Pre Chorus 0:52
G|------------------------------------|
D|o----------------------------------o|
A|o----------------------------------o|
D|--00-05b--005b005b--005-5-00330022--|

Chorus 1:01
G|----------------------------------------------|
D|--------------------------------5-8505--------|
A|-----------08-5(x16)-----------5--------------|
D|-0(x12)--36-----------5(x12)--8--------5(x10)-|

G|-------------------------------------------------------------|
D|------------------------------5-3-2---5-3-2------------------|
A|-1(x16)---1(x16)---3(x16)---33-------3------5~---------------|
D|------------------------------------------------6~--5~--3~2~-|

Solo 1:25
G|---------------------------------------------------------|
D|---------------------------------------------------------|
A|-5(x8)-0(x8)-1(x8)-------------------0(x8)-1111/13131313-|
D|-------------------6(x8)-5(x8)-3(x8)---------------------|

G|-------------------------------------------------|
D|-------------------------------------------------|
A|-5(x8)-0(x8)-1(x8)-------------------0(x8)-1(x8)-|
D|-------------------6(x8)-5(x8)-3(x8)-------------|

1:44
G|----------------------------------|
D|----------------------------------|
A|----------------------------------|
D|-00-05b--005b005b--005-5-00330022-|

Verse 1:50
G|---------------------------------------------------|
D|o-------------------------------------------------o|
A|o-5(x8)-0(x8)-1(x8)-------------------0(x8)-1(x8)-o|
D|--------------------6(x8)-5(x8)-3(x8)--------------|

2:09
G|------------------------------------------------|
D|------------------------------------------------|
A|-5(x14)-33-1(x8)-1-0-1-8-5(x16)--3(x16)--1(x16)-|
D|------------------------------------------------|

Pre Chorus
2:20
G|------------------------------------|
D|o----------------------------------o|
A|o----------------------------------o|
D|--00-05b--005b005b--005-5-00330022--|

Chorus 2:30
G|----------------------------------------------|
D|--------------------------------5-8505--------|
A|-----------08-5(x16)-----------5--------------|
D|-0(x12)--36-----------5(x12)--8--------5(x10)-|

G|--------------------------------------------|
D|------------------------------5-3-2---5-3-2-|
A|-1(x16)---1(x16)---3(x16)---33-------3------|
D|--------------------------------------------|

Breakdown 2:50
G|----------------------------------------------------|
D|-0---------------0---------------------------33338\-|
A|-----3---1---3-------3---1---3---1---1---1----------|
D|----------------------------------------------------|

3:04
G|------------------------------------|-----------------------------------|
D|o----------------------------------o|-----------------------------------|
A|o-7-7-7-7\5-5-5-5\3-3-3-3/5-5-5-5/-o|-3-3-3---3-3-3---3-3-3---3-3--/10\-|
D|------------------------------------|-----------------------------------|

Chorus 3:18
G|-----------------------------------------------|
D|------------0-2(x16)------------2--52-2--------|
A|----------12----------0(x12)--32-----2--0(x10)-|
D|-2(x12)--5-------------------------------------|

G|---------------------------2-0-----2-0---|
D|-----------------0(x16)--00----4--0----4-|
A|-3(x16)--3(x16)--------------------------|
D|-----------------------------------------|

Outro 3:37
G|-----------------------------------------------------------------|
D|------------------2h5p2--------------------------7h10p7----------|
A|------------------------2-1-----0-----0--0---0----------7-6------|
D|-2-----2--2---2-------------5-2-----------------------------10-7-|

G|------------------5h9p5-------------------------------------|
D|------------------------9-5---------------------------------|
A|-3-----3--3---3-------------7---5-----5--5---5---555-555-55-|
D|------------------------------3-----------------------------|

G|--------------------------------------|
D|--------------------------------------|
A|-7------------------------------------|
D|-------8-----7-----5---4---22222-222--|
Tabbed by Dave Vucko

Dancing Dead

Intro 0:06
G|-----------------------------------------------|
D|o---------------------------------------------o|
A|o---------------------------------------------o|
D|--0(x16)---8(x16)---7(x11)--67654-3(x12)-3h5~--|

Verse 0:33
G|-----------------------------------------------------|
D|o---------------------------------------------------o|
A|o---------------------------------------------------o|
D|--0(x16)---8(x15)--9-7(x11)--67654-33333337~7777777--|

Chorus 1:00
G|-------------------------------------------|
D|o-----------------------------------------o|
A|o-5555555----------------3333333-1~01013~-o|
D|----------3~3/15\33315\3-------------------|

G|-----------------5~-5753~-3332----------------------------------|
D|--------23~-3235--------------32---3-------7--------------------|
A|-45~-35-------------------------5---5~8~0---8~-33333331~1111111-|
D|---------------------------------35------10---------------------|

Interlude 1:27
G|-------------------------------------|
D|--------------------1210--10---------|
A|------------------------12--13121012-|
D|-0~0(x13)-0~0000000------------------|

Verse 1:34
G|-----------------------------------------------------|
D|o---------------------------------------------------o|
A|o---------------------------------------------------o|
D|--0(x16)---8(x15)--9-7(x11)--67654-33333337~7777777--|

Chorus 2:01
G|-------------------------------------------|
D|o-----------------------------------------o|
A|o-5555555----------------3333333-1~01013~-o|
D|----------3~3/15\33315\3-------------------|

G|-----------------5~-5753~-3332----------------------------------|
D|--------23~-3235--------------32---3-------7--------------------|
A|-45~-35-------------------------5---5~8~0---8~-33333331~1111111-|
D|---------------------------------35------10---------------------|

Breakdown 2:28
G|-----------------------------------|
D|-----------------------------------|
A|------3~~~~1~~~~~0~~~~0(x8)/12(x8)-|
D|-0~~~~-----------------------------|

Solo 2:45
G|---------|
D|---------|
A|---------|
D|-0(x160)-| Ten bars straight 16th's

GuitarSolo 3:18 x4             x4          x4          x4
G|----------------|--------------|-----------|-----------|----------------------|
D|o--------------o|o------------o|o---------o|o---------o|-----1210--10---------|
A|o--------------o|o------------o|o---------o|o---------o|---------12--13121012-|
D|--000--0-0-000--|--12-11-10-9--|--8-7-6-5--|--6-5-4-3--|-0~~------------------|

Chorus 3:59
G|-------------------------------------------|
D|o-----------------------------------------o|
A|o-5555555----------------3333333-1~01013~-o|
D|----------3~3/15\33315\3-------------------|

G|-----------------5~-5753~-3332----------------------------------|
D|--------23~-3235--------------32---3-------7--------------------|
A|-45~-35-------------------------5---5~8~0---8~-33333331~1111111-|
D|---------------------------------35------10---------------------|

0utro 4:26
G|--------------------------------------------------------|
D|--------------------------------------------------------|
A|-5~-575~-/875~3~-353~-5~3--1~--0~/3-0~/5-1-0------------|
D|-------------------------45------------------57~8-7-5-3-|

G|--------------------------------------------------------|
D|--------------------------------------------------------|
A|-5~-575~-/875~3~-353~-5~3--1~--0~/3-0~/5-1-0------------|
D|-------------------------45------------------57~7-5-3-2-|

G|-------------------------------------------------------------|
D|-------------------------------------------------------------|
A|-5~-575~-/875~3~-353~-5~3--1~--0~/3-0~/5-1-0--------/12-1087-|
D|-------------------------45------------------57~8-7----------|

G|-----------------------------------------------------------|
D|-----------------------------------------------------------|
A|-5~-575~-/875~3~-353~-5~3--1~--0~/3-0~/5-1-0-/12-12-10-8-7-|
D|-------------------------45--------------------------------|

Fade Out
G|--------------------------------------------------------|
D|--------------------------------------------------------|
A|-5~-575~-/875~3~-353~-5~3--1~--0~/3-0~/5-1-0------------|
D|-------------------------45------------------57~8-7-5-3-|

G|--------------------------------------------------------|
D|--------------------------------------------------------|
A|-5~-575~-/875~3~-353~-5~3--1~--0~/3-0~/5-1-0------------|
D|-------------------------45------------------57~7-5-3-2-|
Добавлено: 26.08.2013
Другие материалы по этой песне:
  • Аккорды и текст

Страница создана 26.08.2013
http://primanota.ru/avenged-sevenfold/diamonds-in-the-rough-chords.htm
Привет, Гость.
Предлагаем пройти революционный курс по гитаре.
Подарок от PrimaNota.Ru, забирай!