PrimaNota.ru - самый крупный в мире бесплатный архив песенных текстов, аккордов, табулатур и нот


Avenged Sevenfold - Crossroads - таба, бас-таба, драм-таба, видео

Регистрация Запомнить меня
Войти через:  Facebook Google Twitter Vk Yandex Mail.ru

Avenged Sevenfold - Crossroads - таба, бас-таба, драм-таба, видео

Печатать
Просмотров: 503
-------------------------------------------------------------------------------
                             CROSSROADS SOLO - Avenged Sevenfold
-------------------------------------------------------------------------------
Tabbed by: Lucionx

I don't know how correct this tab is, but when I play it it sounds correct. Enjoy.

Tuning:
Drop D

||-------------------------------------------------||
||----------------15--17bp15-17bp15-17bp15-15-17---||
||----------13-16----------------------------------||
||---12-15-----------------------------------------||
||-------------------------------------------------||
||-------------------------------------------------||


||-----------------------------------||
||----------------15--17bp15-17------||
||----------13-16---------------13b--||
||---12-15---------------------------||
||-----------------------------------||
||-----------------------------------||

||---------------------//17b---||
||----------------15-18--------||
||----------13-16--------------||
||---12-15---------------------||
||-----------------------------||
||-----------------------------||

||-------------------------------------------17b---||
||----------------15-18-15----15-18-15----15-------||
||----------13-16----------18----------18----------||
||---12-15-----------------------------------------||
||-------------------------------------------------||
||-------------------------------------------------||

||------------17--------15h17p15h17p15--------------------||
||---15-18-15----18-15-----------------18-15--------------||
||-------------------------------------------15-14b-14b---||
||--------------------------------------------------------||
||--------------------------------------------------------||
||--------------------------------------------------------||

||------------17--------------15-17-18-17-18//22---||
||---15-18-15----18-15--15-18----------------------||
||-------------------------------------------------||
||-------------------------------------------------||
||-------------------------------------------------||
||-------------------------------------------------||

||------------17--------20-18-17------------------||
||---15-18-15----18-15-----------18-17-------17---||
||-------------------------------------18-19------||
||------------------------------------------------||
||------------------------------------------------||
||------------------------------------------------||

||------------17-------19bp17-19bp17-19bp17---||
||---15-18-15----18-15------------------------||
||--------------------------------------------||
||--------------------------------------------||
||--------------------------------------------||
||--------------------------------------------||

||---19-18-17-18-17-16-15-17-16-15-14-15-16-17b--||
||-----------------------------------------------||
||-----------------------------------------------||
||-----------------------------------------------||
||-----------------------------------------------||
||-----------------------------------------------||


| /  slide up
| \  slide down
| h  hammer-on
| p  pull-off
| ~  vibrato
| +  harmonic
| x  Mute note
===============================================================================
Добавлено: 15.03.2012
Другие материалы по этой песне:

Страница создана 15.03.2012
http://primanota.ru/avenged-sevenfold/crossroads-chords.htm
Привет, Гость.
Предлагаем пройти революционный курс по гитаре.
Подарок от PrimaNota.Ru, забирай!