PrimaNota.ru - самый крупный в мире бесплатный архив песенных текстов, аккордов, табулатур и нот


Avenged Sevenfold - Burn It Down - текст песни, таба, бас-таба, видео

Регистрация Запомнить меня
Войти через:  Facebook Google Twitter Vk Yandex Mail.ru

Avenged Sevenfold - Burn It Down - текст песни, таба, бас-таба, видео

Печатать
Просмотров: 472
-------------------------------------------------------------------------------
                             "Burn it Down" - Avenged Sevenfold
-------------------------------------------------------------------------------


Tabbed by: [travis]






****December 28, 2009: R.I.P. Jimmy "The R.E.V." Sullivan. You will be missed. *****








This is the solo from Burn it Down. I'll tab the part that is just 5 seconds from the solo.

Tuning: D A D G B E

/\ = slides
()= ghost note
b = bend
[]= note that the bend should sound like.
r= bring back bent note to normal.
~ = vibrato
h= hammer on
p= pull off
* = harmonic
... = palm muted

Guitar 1:
"Sweet Child we'll miss you,"
e|-13-----------------------------15-13-12~------12------12\--|
B|---13-------------------12-13-12-------------13------13-----|
G|-----12-10------------12-------------------14------14-------|
D|----------10-----10-12---------------------------14---------|
A|------------10-12-------------------------------------------|
D|------------------------------------------------------------|

Guitar 1:
"oh, So Far away!"
e|-/10-----10------10\8--10-12/15---12------12--15h/19~~~--(19)\--|
B|-------12------12-------------------13--12----------------------|
G|-----12------12-----------------------12------------------------|
D|-----------12---------------------------------------------------|
A|----------------------------------------------------------------|
D|----------------------------------------------------------------|

Guitar 1: Really Fast
e|--------------------------------------------------------|
B|-10-12-10-12-12-12-10-12-10-12-10-10-12-12-12-12-10-10--|
G|--------------------------------------------------------|
D|--------------------------------------------------------|
A|--------------------------------------------------------|
D|--------------------------------------------------------|

Guitar 1: Really Fast
e|-----------------------------------------------|
B|-11-11-13-13-13-11-11-11-13-13-13-13-11-11-11--|
G|-----------------------------------------------|
D|-----------------------------------------------|
A|-----------------------------------------------|
D|-----------------------------------------------|

Guitar 1:
e|-------------------------------------------------------------------------------------------|
B|-11---14--14--14---12b[14]r-(12)b[14]~~r(12)--14b[16]--15b[17]--16b[18]--18b[20]--20b[22]--|
G|-------------------------------------------------------------------------------------------|
D|-------------------------------------------------------------------------------------------|
A|-------------------------------------------------------------------------------------------|
D|-------------------------------------------------------------------------------------------|

Guitar 1: Really Fast
e|-17-18-17-----17-18-17-----17-18-17-----17-18-17-18-17-18-17-17-17-17-|
B|---------18-18--------18-18--------18-18------------------------------|
G|----------------------------------------------------------------------|
D|----------------------------------------------------------------------|
A|----------------------------------------------------------------------|
D|----------------------------------------------------------------------|

Guitar 1 Really Fast
e|---------------------------------------------------------------12-12------------------------|
B|-17\14-14-14-----14-15-14------------------------------------14-----14--------------------14|
G|------------15-15--------15-15-14-15-14--12-14-15-14-14-12-15---------15-14-15-14-14-12-15--|
D|---------------------------------------15---------------------------------------------------|
A|--------------------------------------------------------------------------------------------|
D|--------------------------------------------------------------------------------------------|

Guitar 1: Really Fast
e|-12-12------------------------12-12------------12------------12--18-15-18-15--15------------|
B|------14--------------------14-----14-----14-14--14-----14-14--14-----------17--17--17---10-|
G|--------15-14-15-14-14-12-15---------15-14---------15-14--------------------------18--18----|
D|--------------------------------------------------------------------------------------------|
A|--------------------------------------------------------------------------------------------|
D|--------------------------------------------------------------------------------------------|

Guitar 1: Semi Fast:
e|-----------10-12-13-10-----------12-13-15-12-----------------|
B|-13b[15]~~~------------15b[17]~~~-----------17b[18]~~~-(17)\-|
G|-------------------------------------------------------------|
D|-------------------------------------------------------------|
A|-------------------------------------------------------------|
D|-------------------------------------------------------------|

Guitar 1: Fast
e|-18-15---------15-18--22h23p22-20-22~~~-(22)-|
B|------15-15--15------------------------------|
G|-----------15--------------------------------|
D|---------------------------------------------|
A|---------------------------------------------|
D|---------------------------------------------|

Guitar 2:
e|---------------------------------------------------------------------------|
B|---------------------------------------------------------------------------|
G|---------------------------------------------------------------------------|
D|----------7-----------7-----------8----------------------------------------|
A|----------8-----------7----------10----8-8-8-------------------------------|
D|-0-0-0-0--7--0-0-0-0--7--0-0-0-0--8----8-8-8-------------------------------|
   .......     .......     .......       .....

Guitar 1: Play this over   ^ ^ ^ that part above the ^s.
e|------------------/-----------------------------------------------------------------|
B|-----------------/------------------------------------------------------------------|
G|-3.1*\----------/-------------------------------------------------------------------|
D|-3.1*\\--------/--------------------------------------------------------------------|
A|------\\------/---------------------------------------------------------------------|
D|-------\\\\\\/----------------------------------------------------------------------|
For this part. You make a harmonic by placing your finger barely past the 3rd fret.
The ////s show that after you make those harmonics, you use the wammy bar:
push down and raise the wammy bar up.


That's it. It's a really advanced solo. Play it slow first, then start building
up your speed.
Comment it and rate it.

-[travis]-
Добавлено: 18.04.2012
Другие материалы по этой песне:

Страница создана 24.02.2012
http://primanota.ru/avenged-sevenfold/burn-it-down-chords.htm
Привет, Гость.
Предлагаем пройти революционный курс по гитаре.
Подарок от PrimaNota.Ru, забирай!