PrimaNota.ru - самый крупный в мире бесплатный архив песенных текстов, аккордов, табулатур и нот


Avenged Sevenfold - Beast And The Harlot Live - таба, драм-таба, видео

Регистрация Запомнить меня
Войти через:  Facebook Google Twitter Vk Yandex Mail.ru

Avenged Sevenfold - Beast And The Harlot Live - таба, драм-таба, видео

Печатать
Просмотров: 1188
Artist: Avenged Sevenfold
Album: City of Evil (2005)
Song Title: Beast and the Harlot Live
No.Track: #1

++++++++++++++++++++++++++

* This is Beast and the Harlot live whole song which Synyster Gates play
 at the stage, there are still missing part on this tab, I update it soon
  Hope you like it, No bad comment please and rate it :D

Guitar Tuning: Drop D (D A D G B e) 


Legend

b  - bend
h  - Hammer on
p  - Pull off
/  - Slide down
\  - Slide up
~  - Vibrato
<> - Harmmonics
*  - Palm Mute
PM - Palm Mute
[] - Perfect Sound or perfect bend 

++++++++++++++++++++++++++

INTRO A

|-------------------|-----------------|-----------------|-------------|
|-/7~-7-6-7-9-10--5-|-6~~-6-5-6-8~-/6-|-6~~-6-5-6-8~-/6-|-6~-6-5-6-8~-|
|-------------------|-----------------|-----------------|-------------|
|-------------------|-----------------|-----------------|-------------|
|-------------------|-----------------|-----------------|-------------|
|-------------------|-----------------|-----------------|-------------|

|--------------------|-----------------------|-/11b[12]~-(11)-|
|-/9~~~-/9~~~-/11~~~-|-9-11-/13~-/14~~-/14~~-|----------------|
|--------------------|-----------------------|----------------|
|--------------------|-----------------------|----------------|
|--------------------|-----------------------|----------------|
|--------------------|-----------------------|----------------|

INTRO B

|--------------------------|--------------------------|
|--------------------------|--------------------------|
|--------------------------|-----10----12----13----12-| x3
|----(0)~~-----------------|-0000--0000--0000--0000---|
|----(0)~~-----------------|--------------------------|
|----(0)~~-----------------|--------------------------|
                             ****  ****  ****  ****                            
                            
|-----------10-/13-10---13-|--10~--|
|---------10---------13----|-------|
|-12-10-13-----------------|-------|
|--------------------------|-------|
|--------------------------|-------|
|--------------------------|-------|


++++++++++++++++++++++++++

PRE-VERSE

|----------------------------------------------------------|\ 
|----------------------------------------------------------| \ 
|----------------------------------------------------------|  \
|--------------------------------------------------------5-|   \ 
|--0-0-0-0-3--0-0-0-0-5--0-0-0-0-6--0-0-0-0-5--0-0-0-0-3-5-|    \ 
|--0-0-0-0-3--0-0-0-0-5--0-0-0-0-6--0-0-0-0-5--0-0-0-0-3-5-|     \
PM * * * *    * * * *    * * * *    * * * *    * * * *            \
                                                                  (2x)
|------------------------------|                                  /
|------------------------------|                                 /
|------------------------------|                                /
|----------------------------6-|                               /
|--0-0-0-0-3--0-0-0-0-5--0-0-6-|                              /
|--0-0-0-0-3--0-0-0-0-5--0-0-6-| ____________________________/       
PM * * * *    * * * *

++++++++++++++++++++++++++

VERSE

|----------------------------------------------------------|\ 
|----------------------------------------------------------| \ 
|----------------------------------------------------------|  \
|--------------------------------------------------------5-|   \ 
|--0-0-0-0-3--0-0-0-0-5--0-0-0-0-6--0-0-0-0-5--0-0-0-0-3-5-|    \ 
|--0-0-0-0-3--0-0-0-0-5--0-0-0-0-6--0-0-0-0-5--0-0-0-0-3-5-|     \
PM * * * *    * * * *    * * * *    * * * *    * * * *            \
                                                                  (2x)
|------------------------------|                                  /
|------------------------------|                                 /
|------------------------------|                                /
|----------------------------6-|                               /
|--0-0-0-0-3--0-0-0-0-5--0-0-6-|                              /
|--0-0-0-0-3--0-0-0-0-5--0-0-6-| ____________________________/       
PM * * * *    * * * *

++++++++++++++++++++++++++

PRE-CHORUS

|--------------------------------------|-----------|------------|
|--------------------------------------|-----------|------------|
|--------------------------------------|-----------|------------|
|-------------------------------3-8-8\-|--5-6-7-8--|--7-8-9-10--|
|--0-0-0-0-3--0-0-0-0-5--0-0-0--3-8-8\-|--5-6-7-8--|--7-8-9-10--|
|--0-0-0-0-3--0-0-0-0-5--0-0-0--3-8-8\-|--5-6-7-8--|--7-8-9-10--|
PM * * * *    * * * *    * * *

++++++++++++++++++++++++++

CHORUS

|-------13------13-|-------12------12-|-------10------10-|-------10-10--12----|
|-----13------13---|-----13------13---|-----11------11---|-----11-----11--13--|
|---14------14-----|---12------12-----|---10------10-----|---10---------------| x2
|-15------15-------|-14------14-------|-12------12-------|-12-----------------|
|------------------|------------------|------------------|--------------------|
|------------------|------------------|------------------|--------------------|

|-------15------15-|-------13------13-|-------10------10-|-13------12--------|
|-----15------15---|-----13------13---|-----11------11---|---11--11--11--11--|
|---15------15-----|---14------14-----|---10------10-----|-----10------10----|
|-17------17-------|-15------15-------|-12------12-------|-------------------|
|------------------|------------------|------------------|-------------------|
|------------------|------------------|------------------|-------------------|

|-10-------------------|-12-----10-----9---------------|
|---11--11-13-11-10-11-|---10-10--10-10-10-10-11-10----|
|-----10---------------|-----9------9-----9--------9---|
|----------------------|----------------------------11-|
|----------------------|-------------------------------|
|----------------------|-------------------------------|

++++++++++++++++++++++++++

PRE-SOLO

|-10-(10)~~--13-16--/16-/16~--13-----------------|------------------------------------|
|-------------------------------15-13-15-13b[15]-|--8--------9-------10-------11------|
|------------------------------------------------|-10b[12]--11b[13]--12b[14]--13b[15]-|
|-12---------------------------------------------|------------------------------------|
|------------------------------------------------|------------------------------------|
|------------------------------------------------|------------------------------------|

|----------------------------------------------/15-|
|-13-12-11----14-13-12----15-14-13-14-15-17-18-----|
|----------14----------15--------------------------|
|--------------------------------------------------|
|--------------------------------------------------|
|--------------------------------------------------|

++++++++++++++++++++++++++


SOLO A

|-/17~-17-----17---------------20-17-------------------------------------|
|--------18-17--17-18-17--17--------20-17--------------------------------|
|-----------------------17--17-------------------------------------------|
|----------------------------------------12-10--10-----------------------|
|---------------------------------------------12-------------10-11-12-13-|
|-------------------------------------------------12-13-14-15------------|

|----------------------------------------------12-|
|-------------------------------10-13-10--10-13---|
|-----------------------------13--------13--------|
|-12-12-10-14--12-14-15--14-15--------------------|
|-------------------------------------------------|
|-------------------------------------------------|

                            |__Half Bend__|
|--/17~-/17~-/18~-/15~------12b[13]-12b[13]-|---------|
|---------------------/17~------------------|---------|
|-------------------------------------------|--<9>~~--|
|-------------------------------------------|---------|
|-------------------------------------------|---------|
|-------------------------------------------|---------|


SOLO B

|----------------------------------------------------------------------|
|----------------------------------------------------------------------|
|----------------------------------------------------------------------|
|-----------------------13-12-11-10-13-12-11-10------------------------|
|------------10-11-12-13-----------------------13-12-11-10-13-12-11-10-|
|-12-13-14-15----------------------------------------------------------|

|----------------------------------------------------------------------|
|----------------------------------------------------------------------|
|----------------------------------------------------------------------|
|-----------------------15-14-13-12-15-14-13-12------------------------|
|------------12-13-14-15-----------------------15-14-13-12-15-14-13-12-|
|-14-15-16-17----------------------------------------------------------|

|--------------------------------------------------------------------------------------|
|--------------------------------------13-----13-15-17-18-17-15------------------------|
|-----------------------12-----12-14-15--14-15-----------------17-14-15-17-15-14-------|
|------------10-11-12-13--14-15-------------------------------------------------17-15~-|
|-10-11-12-13--------------------------------------------------------------------------|
|--------------------------------------------------------------------------------------|


SOLO C

|-22-21-20-19---------------------------------21-20-19-18----------------------------------|
|------------23-22-21-20---------------------------------22-21-20-19-----------------------|
|-----------------------23-22-21-20---------------------------------22-21-20-19------------|
|----------------------------------24-23-22-21---------------------------------23-22-21-20-|
|------------------------------------------------------------------------------------------|
|------------------------------------------------------------------------------------------|

|-20-19-18-17---------------------------------19-18-17-16----------------------------------|
|------------21-20-19-18---------------------------------20-19-18-17-----------------------|
|-----------------------21-20-19-18---------------------------------20-19-18-17------------|
|----------------------------------22-21-20-19---------------------------------21-20-19-18-|
|------------------------------------------------------------------------------------------|
|------------------------------------------------------------------------------------------|

|--------------------|
|-13b[14]-(Divebomb)-|
|--------------------|
|--------------------|
|--------------------|
|--------------------|

++++++++++++++++++++++++++

*REPEAT VERSE
*REPEAT PRE-CHORUS
*REPEAT CHORUS

++++++++++++++++++++++++++

BRIDGE

|-----------------------------------------------------|
|--(I don't added this divebomb because never get it--|
|-------so you can put the divebomb what ever---------|
|---------the sound that you like, later--------------|
|------------I will update it soon)-------------------|
|-----------------------------------------------------|

BREAKDOWN

|----------------------------------------------|
|--151515--------------------------------------|
|--------17------------------------------------|
|----------15-17-18-17-15-----15-17-18-17-15---|
|------------------------17-17--------------17-|
|----------------------------------------------|

++++++++++++++++++++++++++

PRE-CHORUS 2

|-------------------------------|
|-------------------------------|
|-15--12-13-14-15--14-15-16-17--|
|-------------------------------|
|-------------------------------|
|-------------------------------|

CHORUS

|-------13------13-|-------12------12-|-------10------10-|-------10-10--12----|
|-----13------13---|-----13------13---|-----11------11---|-----11-----11--13--|
|---14------14-----|---12------12-----|---10------10-----|---10---------------| x2
|-15------15-------|-14------14-------|-12------12-------|-12-----------------|
|------------------|------------------|------------------|--------------------|
|------------------|------------------|------------------|--------------------|

|-------15------15-|-------13------13-|-------10------10-|-13------12--------|
|-----15------15---|-----13------13---|-----11------11---|---11--11--11--11--|
|---15------15-----|---14------14-----|---10------10-----|-----10------10----|
|-17------17-------|-15------15-------|-12------12-------|-------------------|
|------------------|------------------|------------------|-------------------|
|------------------|------------------|------------------|-------------------|

|-10-------------------|-12-----10-----9---------------|
|---11--11-13-11-10-11-|---10-10--10-10-10-10-11-10----|
|-----10---------------|-----9------9-----9--------9---|
|----------------------|----------------------------11-|
|----------------------|-------------------------------|
|----------------------|-------------------------------|

|-------17------17-|-------16------16-|-------14------14-|-------14-14--16---|
|-----17------17---|-----17------17---|-----15------15---|-----15-----15--17-|
|---18------18-----|---16------16-----|---14------14-----|---14--------------| x2 
|-19------19-------|-18------18-------|-16------16-------|-16----------------|
|------------------|------------------|------------------|-------------------|
|------------------|------------------|------------------|-------------------|

|-------19------19-|-------17------17-|-------16------16-|-------14------14-|
|-----19------19---|-----17------17---|-----17------17---|-----15------15---|
|---21------21-----|---18------18-----|---16------16-----|---14------14-----|
|-21------21-------|-19------19-------|-18------18-------|-16------16-------|
|------------------|------------------|------------------|------------------|
|------------------|------------------|------------------|------------------|

|-17------16-------|-14-------------------|-16------14-------|-13-----------------|
|---15--15--15--15-|---15--15-17-15-14-15-|---14--14--14--14-|---14--14-15-14-----|
|-----14------14---|-----14---------------|-----13------13---|-----13--------13---|
|------------------|----------------------|------------------|-----------------15-|
|------------------|----------------------|------------------|--------------------|
|------------------|----------------------|------------------|--------------------|

++++++++++++++++++++++++++

OUTRO


||-------------------|-------------------|-----------------|-------------||
||-/7~-7-6-7-9-10--5-|-6~~-6-5-6-8~-/<6>-|-6~~-6-5-6-8~-/6-|-6~-6-5-6-8~-||
||-------------------|-------------------|-----------------|-------------||
||-------------------|-------------------|-----------------|-------------||
||-------------------|-------------------|-----------------|-------------||
||-------------------|-------------------|-----------------|-------------||

||--------------------|-----------------------|-/11b[12]~-(11)-||
||-/9~~~-/9~~~-/11~~~-|-9-11-/13~-/14~~-/14~~-|----------------||
||--------------------|-----------------------|----------------||
||--------------------|-----------------------|----------------||
||--------------------|-----------------------|----------------||
||--------------------|-----------------------|----------------||

Добавлено: 12.03.2014
Другие материалы по этой песне:

Страница создана 30.03.2012
http://primanota.ru/avenged-sevenfold/beast-and-the-harlot-live-chords.htm
Привет, Гость.
Предлагаем пройти революционный курс по гитаре.
Подарок от PrimaNota.Ru, забирай!