PrimaNota.ru - самый крупный в мире бесплатный архив песенных текстов, аккордов, табулатур и нот


Avenged Sevenfold - Afterlife Live - таба, видео

Регистрация Запомнить меня
Войти через:  Facebook Google Twitter Vk Yandex Mail.ru

Avenged Sevenfold - Afterlife Live - таба, видео

Печатать
Просмотров: 189
e|------------------------------|
B|------------------------------|
G|------------------------------|
D|--0-----8-----5-----8-----7---|
A|--0-----8-----5-----8-----7---|
D|--0-----8-----5-----8-----7---|


++++++++++++++++++++++++++++++++++++++++++++++++++++++
Guitar 1:
e|-----------------------------------------------------------------------------|
B|---------5h6h8p6p5p\3h/5h6h8h/15~~~~~(15)\---------5h6h8p6p5p\3h/5h6h8h/17~~~|
G|-----5-7---------------------------------------5-7---------------------------|
D|-----------------------------------------------------------------------------|
A|-5-8---------------------------------------5-8-------------------------------|
D|-----------------------------------------------------------------------------|
   ...                                       ...


Guitar 1:
e|----------------------------------------|
B|---------5h8p6p5p\3h/5h6h8h/20~~~~(20)\-|
G|-----5-7--------------------------------|
D|----------------------------------------|
A|-5-8------------------------------------|
D|----------------------------------------|
   ...


Really Fast:
Guitar 1:
e|-/13p\8p6--(6)h8p6p5-----8p5h6h8--------------------------------|
B|---------------------8p5--------/3h5p3-\6h8p6p/5p4----------2h3-|
G|---------------------------------------------------6p\4p2h3-----|
D|----------------------------------------------------------------|
A|----------------------------------------------------------------|
D|----------------------------------------------------------------|


++++++++++++++++++++++++++++++++++++++++++++++++++++++++
Duel Melody:
Guitar 1:
e|--------------------------------------------------------------------------|
B|-10p\8-10--10h/17~~(17)\-10-8--10-8-10-(10)/18~~~~(18)\10-8-10-(10)/20~~~-|
G|--------------------------------------------------------------------------|
D|--------------------------------------------------------------------------|
A|--------------------------------------------------------------------------|
D|--------------------------------------------------------------------------|

Guitar 2:
e|-----------------------------------------------------------------|
B|-8p\5-6--6h/13~~(13)\-6-5--6-5-6-(6)/15~~~~(15)\6-5-6--(6)/17~~~-|
G|-----------------------------------------------------------------|
D|-----------------------------------------------------------------|
A|-----------------------------------------------------------------|
D|-----------------------------------------------------------------|

++++++++++++++++++++++++++++++++++++++++++++++++++++++++++++
Intro Lick Continued:
Guitar 1:
         1         .5__________
e|------------------------------------|
B|-18--20b---20---22b~~~~~~~~~~(22)\--|
G|------------------------------------|
D|------------------------------------|
A|------------------------------------|
D|------------------------------------|

Guitar 2:         
        .5          1__________
e|------------------------------------|
B|-15--17b---17---18b~~~~~~~~~~(18)\--|
G|------------------------------------|
D|------------------------------------|
A|------------------------------------|
D|------------------------------------|

+++++++++++++++++++++++++++++++++++++++++++++++++++++++
Really Fast:
Guitar 1:
e|-17-16-15-13-15-16-17-16-15-13-15-16-15-13-------------------------13-16-17~~~(17)\-|
B|-------------------------------------------15-------------------15------------------|
G|----------------------------------------------14-------------14---------------------|
D|-------------------------------------------------15-------15------------------------|
A|----------------------------------------------------17-17---------------------------|
D|------------------------------------------------------------------------------------|


Really Fast:
Guitar 1:
e|----------------------------------------------------------------------|
B|-18-17-15-17-18-17-15-------18-15--------------------15-17-18~~~(18)\-|
G|----------------------15-15-------15--------------15------------------|
D|-------------------------------------15--------15---------------------|
A|----------------------------------------13h/17------------------------|
D|----------------------------------------------------------------------|


Really Fast:
Guitar 1:
e|-18-17-16-15-16-17-18-17-16-15-------------------------------------15-17-18~~~~(18)\-|
B|-------------------------------18-16-15-/19-19------------------15-------------------|
G|-------------------------------------------------------------15----------------------|
D|-----------------------------------------------19-19\-----16-------------------------|
A|------------------------------------------------------/17----------------------------|
D|-------------------------------------------------------------------------------------|


Really Fast:
Guitar 1:
e|-18-17-15----15-17-18-17-15------------------18h/23\------------------------------16-17-18h/22~~|
B|----------18----------------18-15----------15--------18-17-15\14------14/15-17-18---------------|
G|---------------------------------15------15---------------------14--14--------------------------|
D|-----------------------------------15--15-------------------------14----------------------------|
A|-------------------------------------17---------------------------------------------------------|
D|------------------------------------------------------------------------------------------------|


Really Fast:
Guitar 1:
e|----------------------15-------------------------15-------------------|
B|-15-18-15-13-15-13-15----15-15-13-15-18-15-13-15----15-13-18-15-13-15-|
G|----------------------------------------------------------------------|
D|----------------------------------------------------------------------|
A|----------------------------------------------------------------------|
D|----------------------------------------------------------------------|


Really Fast:
Guitar 1:
e|-15-----------------------------15-----------------------15-----------------15---------------|
B|---15-13-18-15-18-15-18-15-13-15--15-13-15-13-15-18-15-15--15-13-15-18-15-15--15-13-15-18-15-|
G|---------------------------------------------------------------------------------------------|
D|---------------------------------------------------------------------------------------------|
A|---------------------------------------------------------------------------------------------|
D|---------------------------------------------------------------------------------------------|


Really Fast: 
Guitar 1:
e|-13-15-13-12-17-13-13-12-13-15-13-13-17-13-12-13-15-13-17-13-12-13-15-13-|
B|-------------------------------------------------------------------------|
G|-------------------------------------------------------------------------|
D|-------------------------------------------------------------------------|
A|-------------------------------------------------------------------------|
D|-------------------------------------------------------------------------|


Really Fast:
Guitar 1:
e|-18-17-15----------17-15-13---------------------------|
B|----------18-17-15----------17-15-13------------------|
G|-------------------------------------15#\-/17#\-/18#\-|
D|------------------------------------------------------|
A|------------------------------------------------------|
D|------------------------------------------------------|


Guitar 1: Pull the wammy bar up 1.5 steps up for the 5*w part.

                  1________       1.5______________
e|-----------------------------------------------------|
B|-----------------------------------------------------|
G|-----------14-17b~~~~~~~~(17)---5*w~~~~~~~~~~~~~~(5)-|
D|-/17----15-------------------------------------------|
A|-----17----------------------------------------------|
D|-----------------------------------------------------|
Добавлено: 07.06.2013
Другие материалы по этой песне:

Страница создана 07.06.2013
http://primanota.ru/avenged-sevenfold/afterlife-live-chords.htm
Привет, Гость.
Предлагаем пройти революционный курс по гитаре.
Подарок от PrimaNota.Ru, забирай!