PrimaNota.ru - самый крупный в мире бесплатный архив песенных текстов, аккордов, табулатур и нот


Avalanch - El despertar vicio letal - таба, видео

Регистрация Запомнить меня
Войти через:  Facebook Google Twitter Vk Yandex Mail.ru

Avalanch - El despertar vicio letal - таба, видео

Печатать
Просмотров: 75



Date: Thu, 6 Jul 2000 03:04:55 -0400
From: Xavier Jimйnez Blanco 
Subject: a/avalanch/el_despertar_vicio_letal.tab

AVALANCH - El despertar (La llama eterna, 1997).

Tabulado por Javier Jimйnez Blanco (Sant Andreu de la Barca, Barcelona), xjimenez@iec.es, 4/7/2000.

Introducciуn de piano para guitarra:
				                                           x2
e|---------------------------------------------------------------------------|
B|---------------------------------------------------------------------------|
G|------9--------------------------7-----------9-----------------------------|
D|----9---9----------10----------7---7-------9---9---------------------------|
A|--7-------------10----10-----5-----------7---------------------------------|
E|--------------8------------------------------------------------------------|
    E           C              D           E 


Distorsiуn [00:15]:
									   x2	
e|---------------------------------------------------------------------------|
B|---------------------------------------------------------------------------|
G|---9--------7---9---------------9--------7---------------------------------|
D|---9---10---7---9---------------9---10---7---7-----------------------------|
A|---7---10---5---7---7h9h10------7---10---5---7-----------------------------|
E|--------8----------------------------8-------5-----------------------------|
     E	  C   D   E               E    C   D   A

Solo 1 [00:34] (x2):

e|---------------------------------------------------------------------------|
B|---15-17-18--18/20--18-17-15--15-17-15--13^--------------------------------|
G|---------------------------------------------------------------------------|
D|---------------------------------------------------------------------------|
A|---------------------------------------------------------------------------|
E|---------------------------------------------------------------------------|
						
									   
e|---------------------------------------------------------------------------|
B|---15-17-18--18/20--18-17-15--15-17-18--18/21^-----------------------------|
G|---------------------------------------------------------------------------|
D|---------------------------------------------------------------------------|
A|---------------------------------------------------------------------------|
E|---------------------------------------------------------------------------|


Solo 2 [00:52]:

e|---------------------------------------------------------------------------|
B|---21^^--22^^--22-21-19--21^^--22-22/24^-24-22--22-21-19--21^^-------------|
G|---------------------------------------------------------------------------|
D|---------------------------------------------------------------------------|
A|---------------------------------------------------------------------------|
E|---------------------------------------------------------------------------|

e|---------------------------------------------------------------------------|
B|---21^^--22^^--22-22/24^^-22-21-22^^--19-21-22-21-19-----------------------|
G|------------------------------------------------------21^--19^^------------|
D|---------------------------------------------------------------------------|
A|---------------------------------------------------------------------------|
E|---------------------------------------------------------------------------|

Ritmo para el Solo 2:

e|---------------------------------------------------------------------------|
B|---------------------------------------------------------------------------|
G|---9----10-----10--9--7--9-----10-10/12--12--10----10--9--7--9-------------|
D|---9----10-----10--9--7--9-----10-10/12--12--10----10--9--7--9-------------|
A|---7-----8------8--7--5--7------8--8/10--10---8-----8 -7--5--7-------------|
E|---------------------------------------------------------------------------|
     E     F      F  E  D  E      F  F  G   G   F     F  E  D  E 



AVALANCH - Vicio letal (La llama eterna, 1997).

Verso:
            x3			         x3
e|------------|---------------|------------|----------------|----------------|
B|------------|---------------|------------|----------------|----------------|
G|------------|---------------|------------|----------------|-------5--------|
D|--------9---|------------7--|--------7---|--------7h9h10--|---7---5---5----|
A|---7777-----|--7--9--10-----|---5555-----|--5h7h8---------|---7---3---5----|
E|------------|---------------|------------|----------------|---5-------3----|
     ····			  ···· 				A   C   G

     Olvidarte de ....
                    
                  
Estribillo:
	       x2
e|---------------|-----------------------------------------------------------|
B|---------------|-----------------------------------------------------------|
G|-------5-------|---9---7---------------------------------------------------|
D|---7---5---5---|---9---7---5---7-------------------------------------------|
A|---7---3---5---|---7---5---5---7-------------------------------------------|
E|---5-------3---|-----------3---5-------------------------------------------|
     A   C   G       E   D   G   A

     Ella es mortal, ...


Verso:

Tabulado por Javier Jimйnez Blanco (Sant Andreu de la Barca, Barcelona), 
xjimenez@iec.es, 4/7/2000.
Me vaya mal o vaya bien, con el heavy y una guitarra siempre estarй.


Добавлено: 03.12.2013
Другие материалы по этой песне:
  • Аккорды и текст

Страница создана 03.12.2013
http://primanota.ru/avalanch/el-despertar-vicio-letal-chords.htm
Привет, Гость.
Предлагаем пройти революционный курс по гитаре.
Подарок от PrimaNota.Ru, забирай!