PrimaNota.ru - самый крупный в мире бесплатный архив песенных текстов, аккордов, табулатур и нот


Ava Luna - Prpl - таба, видео

Регистрация Запомнить меня
Войти через:  Facebook Google Twitter Vk Yandex Mail.ru

Ava Luna - Prpl - таба, видео

Печатать
Просмотров: 49
-------------------------------------------------------------------------------
                             PRPL - Ava Luna
-------------------------------------------------------------------------------

Tuning: Standard

This is only the part for guitar 1

e|---------------------------------------------------------------------------|
B|---------------------------------------------------------------------------|
G|---------------------------------------------------------------------------|
D|--5-5-5-5-5----------------------------------------------------------------|  6x
A|---------------0-----------------------------------------------------------|
E|-------------6-------------------------------------------------------------|

e|---------------------------------------------------------------------------|
B|---------------------------------------------------------------------------|
G|---------------------------------------------------------------------------|
D|---------------------------------------------------------------------------|  2x
A|---------------------------------------------------------------------------|
E|--10-10-10--8---10-10-10-10-9-8--------------------------------------------|

e|---------------------------------------------------------------------------|
B|---------------------------------------------------------------------------|
G|---------------------------------------------------------------------------|
D|--5-5-5-5-5----------------------------------------------------------------|  6x
A|---------------0-----------------------------------------------------------|
E|-------------6-------------------------------------------------------------|

Solo (lightly tremolo pick the upper register)

e|---------------------------------------------------------------------------|
B|---------------------------------------------------------------------------|
G|---------------------------------------------------------------------------|
D|--5-5-5-5-5------------------(end on 5)------------------------------------|  8x
A|---------------0-----------------------------------------------------------|
E|-------------6-------------------------------------------------------------|
Добавлено: 01.08.2015
Другие материалы по этой песне:
  • Аккорды и текст

Страница создана 01.08.2015
http://primanota.ru/ava-luna/prpl-chords.htm
Привет, Гость.
Предлагаем пройти революционный курс по гитаре.
Подарок от PrimaNota.Ru, забирай!