PrimaNota.ru - самый крупный в мире бесплатный архив песенных текстов, аккордов, табулатур и нот


Autumnsun - Step Outside - таба, видео

Регистрация Запомнить меня
Войти через:  Facebook Google Twitter Vk Yandex Mail.ru

Autumnsun - Step Outside - таба, видео

Печатать
Просмотров: 150
Уроки эстрадного вокала в Санкт-Петербурге
Tuning:Drop D

Intro and Verse's:

e|--------------------------------------------|
B|--------------------------------------------|
G|-1010-xxx 1010-xxx-2-2-xxx-1414141414/12----|
D|-8-8--xxx-8-8--xxx-0-0-xxx-x-x-x-x-x-/x-----|
A|-8-8--xxx-8-8--xxx-0-0-xxx-1212121212/10----|
D|-8-8--xxx-8-8--xxx-0-0-xxx------------------|

Chorus:

e|--------------------------------------------|
B|--------------------------------------------|
G|-1010101010101010-14-14-14-14-12-12-12-12---|
D|-8-8-8-8-8-8-8-8--12-12-12-12-10-10-10-10---|
A|-8-8-8-8-8-8-8-8--12-12-12-12-10-10-10-10---|
D|-8-8-8-8-8-8-8-8--12-12-12-12-10-10-10-10---|

Break

e|------------------------------------------------------|
B|------------------------------------------------------|
G|-101010101010101010101010-2-2-2-2-2-2-2-2-2-2-2-2-----|
D|-8-8-8-8-8-8-8-8-8-8-8-8--0-0-0-0-0-0-0-0-0-0-0-0-----|
A|-8-8-8-8-8-8-8-8-8-8-8-8--0-0-0-0-0-0-0-0-0-0-0-0-----|
D|-8-8-8-8-8-8-8-8-8-8-8-8--0-0-0-0-0-0-0-0-0-0-0-0-----|
Добавлено: 22.05.2012
Другие материалы по этой песне:
  • Аккорды и текст

Страница создана 22.05.2012
http://primanota.ru/autumnsun/step-outside-chords.htm
Привет, Гость.
Предлагаем пройти революционный курс по гитаре.
Подарок от PrimaNota.Ru, забирай!