PrimaNota.ru - самый крупный в мире бесплатный архив песенных текстов, аккордов, табулатур и нот


Autopsy - Voices - текст песни, таба, видео

Регистрация Запомнить меня
Войти через:  Facebook Google Twitter Vk Yandex Mail.ru

Autopsy - Voices - текст песни, таба, видео

Печатать
Просмотров: 116
Autopsy -  Voices
     C Tuning  
Tune 2 Whole steps down


INTRO 0:00  1x
|-------------------------------------------------------------------------|
|-------------------------------------------------------------------------|
|-------------------------------------------------------------------------|
|----------------------------------------------------------------------2--|
|-2---3-2-6/5---2---3-2-6/5---2---3-2-6/5---2---3-2-6/5---2---3-2-6/5--2--|
|-0-0-1-0-4/3---0-0-1-0-4/3---0-0-1-0-4/3---0-0-1-0-4/3---0-0-1-0-4/3--0--|
                                                                       PM

1ST VERSE 0:10  2x
|-------------------------------------------------------------------------|
|-------------------------------------------------------------------------|
|-------------------------------------------------------------------------|
|---------------555544444444------------------------555544444444----------|
|---------333444------------------------------333444----------------------|
|-22222222------------------11111111--22222222------------------11111111--|
  PMPMPMPMPMPMPMPMPMPMPMPMPMPMPMPMPM  PMPMPMPMPMPMPMPMPMPMPMPMPMPMPMPMPM


BREAK RIFF 0:19  1x
|-------------------------------------------------------------------------|
|-------------------------------------------------------------------------|
|-------------------------------------------------------------------------|
|-------------------------------------------------------------------------|
|--2--4--3-----------2--4--3-----------2--4--3-----------2--4--3----------|
|--0--2--1--0h3p2p1--0--2--1--0h3p2p1--0--2--1--0h3p2p1--0--2--1--0h3p2p1-|


2ND VERSE 0:28  2x
|-------------------------------------------------------------------------|
|-------------------------------------------------------------------------|
|-------------------------------------------------------------------------|
|---------------555544444444------------------------555544444444----------|
|---------333444------------------------------333444----------------------|
|-22222222------------------11111111--22222222------------------11111111--|
  PMPMPMPMPMPMPMPMPMPMPMPMPMPMPMPMPM  PMPMPMPMPMPMPMPMPMPMPMPMPMPMPMPMPM


2ND BREAK RIFF 0:36  1x
|-------------------------------------------------------------------------|
|-------------------------------------------------------------------------|
|-------------------------------------------------------------------------|
|-------------------------------------------------------------------------|
|--2--4--3-----------2--4--3-----------2--4--3-----------2--4--3----------|
|--0--2--1--0h3p2p1--0--2--1--0h3p2p1--0--2--1--0h3p2p1--0--2--1--0h3p2p1-|


BLAST BEAT RIFF 0:45  2x
|-------------------------------------------------------------------------|
|-------------------------------------------------------------------------|
|-------------------------------------------------------------------------|
|-------------------------------------------------------------------------|
|-----------------------------3--3-------------------------------3--3-----|
|---0h1h2-1h2h3--0h1h2-1h2h3--1--1-----0h1h2-1h2h3--0h1h2-1h2h3--1--1-----|
                              PMPM                               PMPM
 
Eric's Lead 0:55   4x
|-------------------------------------------------------------------------|
|-------------------------------------------------------------------------|
|-------------------------------------------------------------------------|
|------------3~~~-------------3~~-----------------------------------------|
|---------2----------------2----------------------------------------------|
|------0---------4gb5---0---------4/5--1-2-3------------------------------|

 Danny's Rythm 0:55 4x
|-------------------------------------------------------------------------|
|-------------------------------------------------------------------------|
|------------5----------------5-------------------------------------------|
|---------4--3-------------4--3-------------------------------------------|
|------2--2--3----------2--2--3---6/7--3/4/5------------------------------|
|------0---------4gb5---0---------4/5--1/2/3------------------------------|

 Fill  1:11  1x
|-------------------------------------------------------------------------|
|-----HOLD----------------------------------------------------------------|
|------4----3-------------------------------------------------------------|
|------2----1-------------------------------------------------------------|
|------2----1-------------------------------------------------------------|
|----------PM-------------------------------------------------------------|



1:16 1x     
|-------------------------------------------------------------------------|
|-------------------------------------------------------------------------|
|-------------------------------------------------------------------------|
|------------4/5/7---------------------4/5/7------------------------------|
|-BASS-BREAK-4/5/7-444444443333333333--4/5/7-444444443333333333-----------|
|------------2/3/5-222222221111111111--2/3/5-222222221111111111-----------|
            PMPMPM PMPMPMPMPMPMPMPMPM PMPMPM PMPMPMPMPMPMPMPMPM
CTND 1x
|--------------------------------------------------------------------------|
|--------------------------------------------------------------------------|
|--------------------------------------------------------------------------|
|4/5/7--------------------4/5/7--------------------4/5/7-------------------|
|4/5/7-444444443333333333-4/5/7-444444443333333333-4/5/7-444444443333333333|
|2/3/5-222222221111111111-2/3/5-222222221111111111-2/3/5-222222221111111111|
 PMPMPMPMPMPMPMPMPMPMPMPMPMPMPMPMPMPMPMPMPMPMPMPMPMPMPMPMPMPMPMPMPMPMPMPMPM

CTND 1x
|-------------------------------------------------------------------------|
|-------------------------------------------------------------------------|
|-------------------------------------------------------------------------|
|---4-5-7-----------------------------------------------------------------|
|---4-5-7-----------------------------------------------------------------|
|---2-3-5-----------------------------------------------------------------|
   PMPMPM

 Fill Riff 1:26  4x
|-------------------------------------------------------------------------|
|-------------------------------------------------------------------------|
|-------------------------------------------------------------------------|
|-------------------------------------------------------------------------|
|--66-77--44-55--6/7-7----66-77--44-55--6/7-7-----------------------------|
|--44-55--22-33--4/5-5----44-55--22-33--4/5-5-----------------------------|
   PM PM  PM PM  PMPMPM   PM PM  PM PM  PMPMPM

1:34 1x
|-------------------------------------------------------------------------|
|-------------------------------------------------------------------------|
|-------------------------------------------------------------------------|
|----------------------4/5/7---------------------4/5/7--------------------|
|-44444444-3333333333--4/5/7-444444443333333333--4/5/7-444444443333333333-|
|-22222222-1111111111--2/3/5-222222221111111111--2/3/5-222222221111111111-|
  PMPMPMPM PMPMPMPMPM  PMPMPMPMPMPMPMPMPMPMPMPMPMPMPMPMPMPMPMPMPMPMPMPMPM
CTND 1x
|-------------------------------------------------------------------------|
|-------------------------------------------------------------------------|
|-------------------------------------------------------------------------|
|----4/5/7---------------------4/5/7--------------------------------------|
|----4/5/7-444444443333333333--4/5/7--------------------------------------|
|----2/3/5-222222221111111111--2/3/5--------------------------------------|
    PMPM PMPMPMPMPMPMPMPMPM PMPM 
   


LEAD BREAK RYTHM 1:41 1x
|-------------------------------------------------------------------------|
|------------HOLD-ALL-CHORDS-LET-RING-OVER-TOP-OF-THE-LEAD----------------|
|----------------6------------------6-------------------------------------|
|----4-----5-----4--------5---------4-----5----------4--------------------|
|----4-----3-----4--------3---------4-----3----------4---------3----------|
|----2-----3--------------3---------------3----------2---------3----------|

LEAD 1:41 1x
|-------------------------------------------------------------------------|
|----------------------13gb14r15~~~---------------------------------------|
|----------------11~~~--------------11~~~---------------------------------|
|----------10~~~--------------------------11-10tr11-----------------------|
|----9~~~---------------------------------------------10-9~~~-------------|
|--------------------------------------------------------------9-8trill9--|
2nd LEAD 1:41 (Barely heard)
|------2ND-HARMONY-OVERTOP------------------------------------------------|
|----------------------16gb17r16~~~---------------------------------------|
|----------------14~~~--------------14~~~---------------------------------|
|----------13~~~--------------------------14-13tr14-----------------------|
|---12~~~---------------------------------------------13-12~~~------------|
|-------------------------------------------------------------12-11TRILL12|


END RIFFS 1:56  1x 
|-------------------------------------------------------------------------|
|--------------------------------------------------------------E-N-D------|
|-------------------------------------------------------------------------|
|------------------------------------------------------------------HOLD---|
|-------------------------3-3--------------------------3-3---3-3333-2--2--|
|-0h1h2-1h2h3-0h1h2-1h2h3-1-1--0h1h2-1h2h3-0h1h2-1h2h3-1-1---1-1111-0--0--|
                          PMPM                         PMPM           PM
Добавлено: 13.06.2013
Вам также может быть интересно:
Другие материалы по этой песне:
  • Аккорды и текст

Страница создана 07.05.2012
http://primanota.ru/autopsy/voices-chords.htm
Привет, Гость.
Предлагаем пройти революционный курс по гитаре.
Подарок от PrimaNota.Ru, забирай!