PrimaNota.ru - самый крупный в мире бесплатный архив песенных текстов, аккордов, табулатур и нот


Autopsy - Slaughterday - текст песни, таба, видео

Регистрация Запомнить меня
Войти через:  Facebook Google Twitter Vk Yandex Mail.ru

Autopsy - Slaughterday - текст песни, таба, видео

Печатать
Просмотров: 113
-AUTOPSY - SLAUGHTERDAY from the "Mental Funeral" CD (c) 1991 Vile Music
-Transcribed by Chris Myhre. Version 1.1 Feb 2000 (ver 1.0 Dec 99)
-For questions, corrections, etc email me: bowel_ripper@hotmail.com
-For best print edit the left/right margins in page setup to make the tab fit the sheet
-Tuning: C (1:C, 2:G, 3:D#, 4:A#, 5:F, 6:C)
-Notation legend: h = hammer-on; p = pull-off; . = palm mute; ^ = semitone
 trill; / = slide up; \ = slide down; ~ = vibrato; " = tremolopick; * = see note
-Note that the tuning on this song can be a bit confusing. Especially in riff B
 and the succeeding riff where it sounds like the 6th string is slightly above C.
 The tuning is C anyway, but if you try to play it together with the song on the
 album it might sound a bit out of tune some places...

   riff A			       * gtr 2 plays octave
1>|gtr 1 & 2-----------------------------1st time only----x2--------------------------
2>|------------------------------------------*-*--*--*-*-*-|--------------------------
3>|------------------------------------------5-4--5--6-5-4-|--------------------------
4>|--------------------------------------------------------|--------------------------
5>|4-4--4-4-4--4-4-0--1--0---0-3-3--3-3-3--3-3-2--3--4-3-2-|4---4-4---4-4---------3-4-
6>|2-2--2-2-2--2-2---------2---1-1--1-1-1--1---------------|--------------4--3--1-----
			 _____ ______
  ----------------------| 1   | 2   x2------|---------* gtr 1 joins here 1st time---
  -----------------------------------|------|---------------------------------------
  -----------------------------------|repeat|--------------------------*------------
  -----------------------5h6-5-------|riff A|------------------5\444/55-------------
  -3---3-3---3-3-4--6--7-------6h7-6-|------|5-55555-55554-44443\222/335-55555-5555-
  -----------------------------------|------|3-33333-33332-2222--------3-33333-3333-

	  _____ ______   gtr 2 (harmonizes)
  -------|1,3  |2,4  x4--gtr 1-------------------------------------------|
  --------------------|--------------------------------------------------|
  --------------------|7~----10--9--8~----8^----7~----10--9--6~----6^----|
  --------------------|5~----8---7--6~----6^----5~----8---7--4~----4^----|
  -4-4444-3-3-3-3-3-3-|--------------------------------------------------|
  -2-2222-1-3-1-1-1-1-|--------------------------------------------------|

							       gtr 2 harmonizes with 5th's
					    __________ __________2nd time then the octave
  |----------------------------------------|  1-3     |  4      x4-riff B---------------x4
  |--------------------------------------------------------------|--------5-6------------|
  |--------------------------------------------------------------|---4--3-4-5--5--4------|
  |--------------------------------------------------------------|2--4--3-2-3--5--4-5-6--|
  |-------------------3-2^--3------------------------------------|2--2--1------3--2-5-6--|
  |3-33333-33332-2222---------3-33333-33332-2222111111-22221-1-1-|0-----------------3-4--|

   			   ______ _______ (when gtr 2 plays this part, gtr 1
  |gtr 1 x4---------------|1(,3) | 2(,4) '-still plays the previous part)--x2
  |gtr 2 x2------------------------------'----------------------------------'
  |--------------------------------------'----------------------------------'
  |--------------------------------------'-----------------8-9p8^-----8-----'
  |---------------------------(4)----(1)-'7-10-9-7-9^--7-9---------10---9~--'
  |0-3-2-0-2~--0-2-0-3-2-0-1-3-4--2-3-1--'----------------------------------'

  (the two first times gtr 2 plays this part, gtr 1 plays
  previous part and joins the two last times)
  '---------------------------------------------x4-gtr 2 (harmonizes)----------------------'
  '----------------------------------------------'-gtr 1-----------------------------------'
  '-----------------------15-16p15^-----15-------'--------------------10-11p10^-----10-----'
  '14-17-16-14-16^--14-16------------17----16~---'9-12-11-9-11^--9-11-8--9p8^----12-8--11--'
  '----------------------------------------------'7-10-9--7-9^---7-9-------------10----9---'
  '----------------------------------------------'-----------------------------------------'

  '-----------* don't play this--x2-(w/lead)--------------------------------'
  '-------------note last time----|-----------------------------------------'
  '-------------------------------|-----------------------------------------'
  '----------------------------*--|-----------------------------------------'
  '----------------1-2p1^----1-2--|-----------------------------------------'
  '0-3-2-0-2^--0-2---------3------|2"----6"----5"---6"-5"-0"----2"----1"----'

  'gtr 2 (harmonizes)'-----x2----------------------------------------------------
  'gtr 1-------------'------|----------------------------------------------------
  '------------------'------|----------------------------------------------------
  '------------------'------|----------------------------------------------------
  '3"----6"----5"----'2"----|-----------------------------------------3"----6"---
  '(1")--4"----3"----'------|2"----6"----5"---6"-5"-0"----2"----1"---------------
			    	      ________________________ _______________________
  --* gtr 1-|--------------* gtr 2---|   1, 3		      |    2		      '
  ----only--|-------------harmonizes-------------*--*-*-*-*---------------------------'
  ----------|-------------------------*---*-*-*--3--4-3h4p3-*------------4------3-----'
  ------***-|4---4-4--2-3-4-----------5---5-4-5--1--2-1h2p1-5------------2------1--5--'
  -5"---6p5-|2---2-2--0-1-2--4--3---3-3---3-2-3-------------3--3---3-2-3----2-3----3--'
  ----------|----------------2--1---1-------------------------------------------------'
	    	      . .	          			     . .    . .
   _________________________________________________________________
  '		4						   x4-----x1
  '-----------------------------------------------------------------|------|
  '-----------------------------------------------------------------|repeat|
  '-------------1--2--1-----1---------------------------------------|riff B|
  '3---3--2--3-----------3-----3--2--3--2-----2---------------------|------|
  '----------------------------------------4-----4--3---4---3---1---|------|
Добавлено: 27.02.2012
Другие материалы по этой песне:
  • Аккорды и текст

Страница создана 27.02.2012
http://primanota.ru/autopsy/slaughterday-chords.htm
Привет, Гость.
Предлагаем пройти революционный курс по гитаре.
Подарок от PrimaNota.Ru, забирай!