PrimaNota.ru - самый крупный в мире бесплатный архив песенных текстов, аккордов, табулатур и нот


Autopsy - Seeds Of The Doomed - таба, видео

Регистрация Запомнить меня
Войти через:  Facebook Google Twitter Vk Yandex Mail.ru

Autopsy - Seeds Of The Doomed - таба, видео

Печатать
Просмотров: 128
Уроки эстрадного вокала в Санкт-Петербурге
Autopsy - Seeds of the doomed tab
Tune two whole steps down aka C Tuning


INTRO RIFF 2X  0:00
|-------------------------------------------------------------------------|
|-------------------------------------------------------------------------|
|-------------------------------------------------------------------------|
|-6--6--11-----------6--6--11-----------6--6--11-----------6--6--11-------|
|-6--6--9--9---8-----6--6--9--9---8-----6--6--9--9---8-----6--6--9--9---8-|
|-4--4-----7---6-----4--4-----7---6-----4--4-----7---6-----4--4-----7---6-|
PLAY HARMONY 
LAST TWO TIMES 0:22
|-------------------------------------------------------------------------|
|-------------------------------------------------------------------------|
|-----------------/11--------------------------/11------------------------|
|--------6~~~6~~~-----9~~~~~(8)-------6~~~6~~~-----9~~~~~(8)--------------|
|-------------------------------------------------------------------------|
|-------------------------------------------------------------------------|


1ST VERSE 4X  0:29  
|-------------------------------------------------------------------------|
|-------------------------------------------------------------------------|
|-------------------------------------------------------------------------|
|----------9-9-9-9------------------------------9-9-9-9-------------------|
|--6-6-6-6-7-7-7-7-8-8-8-8--4--2--2-----6-6-6-6-7-7-7-7-8-8-8-8--4--2--2--|
|--4-4-4-4---------6-6-6-6--2--0--0-----4-4-4-4---------6-6-6-6--2--0--0--|

1ST VERSE HARMONY 2X  0:29
|-------------------------------------------------------------------------|
|-------------------------------------------------------------------------|
|-------9~~~8~~~9b11-9.-8.----------9~~~8~~~---TRILLING-------------------|
|--\6~~~-----------------------\6~~~--------7p5h7p5h7p5h7p5---------------|
|-------------------------------------------------------------------------|
|-------------------------------------------------------------------------|


1ST CHORUS RIFF 2X  0:58
|-------------------------------------------------------------------------|
|-------------------------------------------------------------------------|
|-------------------------------------------------------------------------|
|----------------------------9-8----------------------------------9-8-----|
|---8-8-8--6/8-8-8--6/8-8-8--7-6-7-------8-8-8--6/8-8-8--6/8-8-8--7-6-7---|
|---6-6-6--4/6-6-6--4/6-6-6------5-------6-6-6--4/6-6-6--4/6-6-6------5---|


2ND VERSE RIFF 4X  1:12  
|-------------------------------------------------------------------------|
|-------------------------------------------------------------------------|
|-------------------------------------------------------------------------|
|----------9-9-9-9------------------------------9-9-9-9-------------------|
|--6-6-6-6-7-7-7-7-8-8-8-8--4--2--2-----6-6-6-6-7-7-7-7-8-8-8-8--4--2--2--|
|--4-4-4-4---------6-6-6-6--2--0--0-----4-4-4-4---------6-6-6-6--2--0--0--|

2ND VERSE HARMONY 2X  1:12
|-------------------------------------------------------------------------|
|-------------------------------------------------------------------------|
|-------9~~~8~~~9b11-9.-8.----------9~~~8~~~---TRILLING-------------------|
|--\6~~~-----------------------\6~~~--------7p5h7p5h7p5h7p5---------------|
|-------------------------------------------------------------------------|
|-------------------------------------------------------------------------|


2ND CHORUS RIFF 2X  1:41
|-------------------------------------------------------------------------|
|-------------------------------------------------------------------------|
|-------------------------------------------------------------------------|
|----------------------------9-8----------------------------------9-8-----|
|---8-8-8--6/8-8-8--6/8-8-8--7-6-7-------8-8-8--6/8-8-8--6/8-8-8--7-6-7---|
|---6-6-6--4/6-6-6--4/6-6-6------5-------6-6-6--4/6-6-6--4/6-6-6------5---|


FIRST SOLO RYTHM 2X  1:55
|-------------------------------------------------------------------------|
|-------------------------------------------------------------------------|
|-------------------------------------------------------------------------|
|----------9-9-9-9------------------------------9-9-9-9-------------------|
|--6-6-6-6-7-7-7-7-8-8-8-8--4--2--2-----6-6-6-6-7-7-7-7-8-8-8-8--4--2--2--|
|--4-4-4-4---------6-6-6-6--2--0--0-----4-4-4-4---------6-6-6-6--2--0--0--|

ERIC'S SOLO  1:55
|--------16---19b21~~~~19p16--19b21~~~~~~~16-19p16-21p16--16-19p16-19p16--|
|-/16~~~---16---------------19--------------------------------------------|
|-------------------------------------------------------------------------|
|-------------------------------------------------------------------------|
|------------WHOLE--SOLO--PLAYED--WITH--WAH--PEDAL------------------------|
|-------------------------------------------------------------------------|

|------------------------------------------------------------TRILLING-----|
|-16h19p16-------------------------------------------------4h7p4h7p4hp7---|
|---------18p16-16h18p16-18b20~~~~~~--4-6p4h6p4h6p4--6/8\6----------------|
|---------------------------------------TRILLING--------------------------|
|-------------------------------------------------------------------------|
|-------------------------------------------------------------------------|

|-------------------------------------------------------------------------|
|----/12h14p12h14-14/16---16-19p16h19p16--19p16--16h19p16--16h19p16-------|
|-----------------------19--------------19-----19--------19---------------|
|-------------------------------------------------------------------------|
|-------------------------------------------------------------------------|
|-------------------------------------------------------------------------|

|-------16h17p16---16-----------------------------------------------------|
|-----19---------19--19p16-16h19p16---------------------------------------|
|----------------------------------18p16--16h18p16------------------------|
|---------------------------------------18--------18-16h18----------------|
|-------------------------------------------------------------------------|
|-------------------------------------------------------------------------|
                   2:08              2:09
|-------------------0/\/\/\/\/\/\/\/----------------------FINISH-W/-------|
|-START-DEPRESSING----SLOWLY-RAISE----0/\/\/\/\/\/\/\/\/-----0------------|
|--FLOYD-ROSE---------BAR-W/VIBRATO----GRADUAL-FULL-BEND---GRADUAL--------|
|--------------------------------------UP-WITH-FLOYD-ROSE---DIVE----------|
|-----------------------------------------------------------DOWN----------|
|-------------------------------------------------------------------------|


BREAK RIFF 2X  2:09
|-------------------------------------------------------------------------|
|-------------------------------------------------------------------------|
|-------------------------------------------------------------------------|
|----6--6--9----------6--6-----7---------6--6--9----------6--6-----7------|
|----6--6--7--10------6--6--9--5---------6--6--7--10------6--6--9--5------|
|----4--4-----8-------4--4--7------------4--4-----8-------4--4--7---------|

2ND BREAK RIFF 2:40                     
|-------------------------------------------------------------------------|
|-----------------------------------------------HOLD----------------------|
|----HOLD----------T-R-I-L-L-I-N-G---------------4------4-HOLD----HOLD----|
|-----6-----/5~~-4h5p4h5p4h5p4h5p4h5p4h5p4~~--5--4------4--3----3--6------|
|-----6-----(3)-(4)---------------------------5--2------2--3----3--6------|
|-----4---------------------------------------3------------1----1--4------|
CTND 2:57
|-------------------------------------------------------------------------|
|--------------------------------------HOLD-------------------------------|
|---------T-R-I-L-L-I-N-G---------------4-----4-HOLD--4-HOLD--4-HOLD--4---|
|--/5~~-4h5p4h5p4h5p4h5p4h5p4h5p4~~--5--4-----4--3----4--3----4--3----4---|
|--(3)-(2)---------------------------5--2-----2--3----2--3----2--3----2---|
|------------------------------------3-----------1-------1-------1--------|
HARMONY FOR ABOVE RIFF  3:08
|-------------------------------------------------------------------------|
|-------------------------------------------------------------------------|
|------4~~~-----------------4~~~------------------------------------------|
|-----------3~~~~~~~-------------3~~~~~~~---------------------------------|
|-------------------------------------------------------------------------|
|-------------------------------------------------------------------------|


3RD VERSE 4X  3:16 
|-------------------------------------------------------------------------|
|-------------------------------------------------------------------------|
|-------------------------------------------------------------------------|
|----------9-9-9-9------------------------------9-9-9-9-------------------|
|--6-6-6-6-7-7-7-7-8-8-8-8--4--2--2-----6-6-6-6-7-7-7-7-8-8-8-8--4--2--2--|
|--4-4-4-4---------6-6-6-6--2--0--0-----4-4-4-4---------6-6-6-6--2--0--0--|

3RD VERSE HARMONY 2X  3:16
|-------------------------------------------------------------------------|
|-------------------------------------------------------------------------|
|-------9~~~8~~~9b11-9.-8.----------9~~~8~~~---TRILLING-------------------|
|--\6~~~-----------------------\6~~~--------7p5h7p5h7p5h7p5---------------|
|-------------------------------------------------------------------------|
|-------------------------------------------------------------------------|

3RD CHORUS RIFF 2X  3:45
|-------------------------------------------------------------------------|
|-------------------------------------------------------------------------|
|-------------------------------------------------------------------------|
|----------------------------9-8----------------------------------9-8-----|
|---8-8-8--6/8-8-8--6/8-8-8--7-6-7-------8-8-8--6/8-8-8--6/8-8-8--7-6-7---|
|---6-6-6--4/6-6-6--4/6-6-6------5-------6-6-6--4/6-6-6--4/6-6-6------5---|


2ND SOLO RYTHM 3:59 2X
|-------------------------------------------------------------------------|
|-------------------------------------------------------------------------|
|-------------------------------------------------------------------------|
|----------9-9-9-9------------------------------9-9-9-9-------------------|
|--6-6-6-6-7-7-7-7-8-8-8-8--4--2--2-----6-6-6-6-7-7-7-7-8-8-8-8--4--2--2--|
|--4-4-4-4---------6-6-6-6--2--0--0-----4-4-4-4---------6-6-6-6--2--0--0--|

DANNYS SOLO  3:59
|-------------------------------------------------------------------------|
|------TRILL-THESE-NOTES-WHILE-ROCKING------------------------------------|
|---13-11h13p11h13p11h13p11h13p11--13p11----------------------------------|
|-------THE-WAH-PEDAL-BACK-AND-FORTH----13p11h13p11h13-13-11--------------|
|------------------------------------------------------------14~~~~~~~----|
|-------------------------------------------------------------------------|
      4:03
|-------------------------------------------------------------------------|
|-------------GRADUAL-BEND------------------------------------------------|
|------11-13--13gb16-r13---11h12p11---------------------------------------|
|--/13--------AND-RELEASE-----------13~~~~~~~~~~--------------------------|
|-------------------------------------------------------------------------|
|-------------------------------------------------------------------------|
      4:07
|-------/16h19p16--16h20p16--16h20p16--16h20p16---------------------------|
|----------------19--------19--------19-----------------------------------|
|-------------------------------------------------------------------------|
|-------------------------------------------------------------------------|
|-------------------------------------------------------------------------|
|-------------------------------------------------------------------------|

|-------------------------------------------------------------------------|
|----16h19p16---16--16---16h19p16--16h19p16--------------16h17h18---------|
|--19---------18--19---19--------19--------18-19p18p16-18--------19-------|
|-------------------------------------------------------------------------|
|-------------------------------------------------------------------------|
|-------------------------------------------------------------------------|

|-------------------------------------------------------------------------|
|-------------------------------------------------------------------------|
|--19p16--18p16---18b19~~~~~~~18b20~~~~~~~~~~~~~~~~-----------------------|
|-------18-----18---------------------------------------------------------|
|--------------------------------------------------/12~~~~~11~~~~~~~~-----|
|-------------------------------------------------------------------------|

|-------------------------------------------------------------------------|
|-------------------------------------------------------------------------|
|-------------------------------------------------------------------------|
|------------PICK-SLIDE-UNTIL-END-----------------------------------------|
|-11~~~~~~~-/////////////////////////-------------------------------------|
|-----------/////////////////////////-------------------------------------|



2ND BREAK  2X  4:14
|-------------------------------------------------------------------------|
|-------------------------------------------------------------------------|
|-------------------------------------------------------------------------|
|----6--6--9----------6--6-----7---------6--6--9----------6--6-----7------|
|----6--6--7--10------6--6--9--5---------6--6--7--10------6--6--9--5------|
|----4--4-----8-------4--4--7------------4--4-----8-------4--4--7---------|

2ND BREAK RIFF 4:44                     
|-------------------------------------------------------------------------|
|-----------------------------------------------HOLD----------------------|
|----HOLD----------T-R-I-L-L-I-N-G---------------4------4-HOLD----HOLD----|
|-----6-----/5~~-4h5p4h5p4h5p4h5p4h5p4h5p4~~--5--4------4--3----3--6------|
|-----6-----(3)-(4)---------------------------5--2------2--3----3--6------|
|-----4---------------------------------------3------------1----1--4------|
CTND 5:02
|-------------------------------------------------------------------------|
|--------------------------------------HOLD-------------------------------|
|---------T-R-I-L-L-I-N-G---------------4-----4-HOLD--4-HOLD--4-HOLD--4---|
|--/5~~-4h5p4h5p4h5p4h5p4h5p4h5p4~~--5--4-----4--3----4--3----4--3----4---|
|--(3)-(2)---------------------------5--2-----2--3----2--3----2--3----2---|
|------------------------------------3-----------1-------1-------1--------|

END OF SONG 5:21 
|-------------------------------------------------------------------------|
|-------------------------------------------------------------------------|
|-------------------------------------------------------------------------|
|--------------9-9-9-9----------4--2--2-----------------------------------|
|------6-6-6-6-7-7-7-7-8-8-8-8--4--2--2-----------------------------------|
|------4-4-4-4---------6-6-6-6--2--0--0-----------------------------------|
                                  PM PM
Добавлено: 16.11.2013
Другие материалы по этой песне:
  • Аккорды и текст

Страница создана 16.11.2013
http://primanota.ru/autopsy/seeds-of-the-doomed-chords.htm
Привет, Гость.
Предлагаем пройти революционный курс по гитаре.
Подарок от PrimaNota.Ru, забирай!