PrimaNota.ru - самый крупный в мире бесплатный архив песенных текстов, аккордов, табулатур и нот


Autopsy - Ridden With Disease - текст песни, таба, видео

Регистрация Запомнить меня
Войти через:  Facebook Google Twitter Vk Yandex Mail.ru

Autopsy - Ridden With Disease - текст песни, таба, видео

Печатать
Просмотров: 145
_________________________________________________________________________________
-AUTOPSY - RIDDEN WITH DISEASE from the "Severed Survival" CD (c) 1990 Peaceville
-Transcribed by Chris Myhre. Version 1.0b June 2002 (last ver: 1.0 Dec 99)
-Email: bowel_ripper@hotmail.com - Website: http://home.no.net/bowelrip
-For best print edit the left/right margins in page setup to make the tab fit the sheet
-Tuning: 1.75 steps down (somewhere between C and C#)
-Notation legend: h = hammer-on; . = (slight) palm mute; \ = slide down;
                  " = tremolopick; * = see note
                                                       ___________ ____________
1>|riff A---------------------------------------------| 1, 3, 4   |   2       x4--riff B------
2>|gtr 1 & 2-------------------------------------------------------------------|--------------
3>|----------------------------------------------------------------------------|--------------
4>|----------------------------------------------------4-----------6-----------|--------------
5>|4-------------------4-5-4---4---3---------------------5---------4-7-6---5---|4-------------
6>|2---2222222222222222------5-----1---1111111111111111----5---4-----5-4---3---|2-------------
       ................                ................

 * gtr 1 only-------------------------------------x4--riff C------------------------------x4
 --------------------------------------------------|---------------------------------------|
 --------------------------------------------------|---------------------------------------|
 *-*-----------------------------------------------|---------------------------------------|
 4-4---4-2-4-------3-------------3-3---------2-4-5-|4-------4--5---------3-------6-----7-6-|
 2-2---2-0-2---5---1-------------1-1---------0-2-3-|2-------------5--4-5-1-------4-----5-4-|
                                                    "       "  "  "   h  "       "      \

        gtr 1 x2      gtr 1 x2 (plays octaves 2nd time)
        gtr 2 x3      gtr 2 x1                  whole riff x6 (gtr 1 plays octaves last time)
|------|-----x8-----x8-----------x4-----------x4-------x4--------'--------|------'----|
|repeat|------'------|7-----------'6-----------|--------'7-------'6-------|------'----|
|riffs-|------'------|---7--6-----'---6--5-----|--------'--7-6---'--6-5---|repeat'----|
|A/B/C-|------'------|4--------7--'3--------6--|--------'4-----7-'3-----6-|riff A'----|
|------|444444'333333|---5--4-----'---4--3-----|4444335-'--5-4---'--4-3---|------'4---|
|------|222222'111111|---------5--'---------4--|2222113-'------5-'------4-|------'2---|
        ...... ...... "  "  "  "   "  "  "  "            " " " "  " " "
Добавлено: 13.03.2012
Другие материалы по этой песне:

Страница создана 10.03.2012
http://primanota.ru/autopsy/ridden-with-disease-chords.htm
Привет, Гость.
Предлагаем пройти революционный курс по гитаре.
Подарок от PrimaNota.Ru, забирай!