PrimaNota.ru - самый крупный в мире бесплатный архив песенных текстов, аккордов, табулатур и нот


Autopsy - Ravenous Freaks - текст песни, таба, видео

Регистрация Запомнить меня
Войти через:  Facebook Google Twitter Vk Yandex Mail.ru

Autopsy - Ravenous Freaks - текст песни, таба, видео

Печатать
Просмотров: 145
-AUTOPSY - RAVENOUS FREAKS from the "Fiend for Blood" MCD (c) 1991
Peaceville
-Transcribed by Chris Myhre. Version 1.0 Nov 2001
-For questions, corrections, etc email me: bowel_ripper@hotmail.com
-For best print edit the left/right margins in page setup to make the tab
fit the sheet
-Tuning: two steps down (1:C, 2:G, 3:D#, 4:A#, 5:F, 6:C)
-Notation legend: . = palm mute; * = see note; " = tremolopick; f.o. =
fade-out

						 whole riff x2 riff A	       * gtr 2
1>|gtr 1 & 2------------x4---------------_____ _______------x4-1st
time------x4--joins here
2>|----------------------|--------------| 1-7 |  8    |------|-gtr 1
only-----'--1st time
3>|----------------------|-----------------------------------|--------------
--'---------
4>|----------------------|---------------4-------4-----*-----|--------------
--'*--------
5>|4-3-4-3---2-2-2-2-2-2-|4"---3"---3"---2-4-3-3-2-4---2-f.o.|6-7-6---3-6-5-
--'3--3-3-3-
6>|2-1-2-1---0-0-0-0-0-0-|-----------------2-1-1---2---0-----|4-5-4-0-1-4-3-
0-'1--1-1-1-
	     . . . . . .    * gtr 2 only (gtr 1 begins riff A)

	whole riff x3
  ------------------'----------|-gtr 1--------|-* gtr 1 plays
right---x4-(w/leads)-x8
  ------------------'----------|--------------|---side 3rd/4th
time----|------------|
  ------------------'repeat
1st|--------------|------------------------|-repeat 1st-|
  ------------------'--part
of-|7-----5--4--5-|-------*-----------*----|--part of---|
  -3-3-3--3-3-3--3--'--riff
A--|5-----3--2--3-|-*----6|9----*----3|6---|--riff A----|
  -1-1-1--1-1-1--1--'----------|--4-3---------|5|8---------2|5---------|----
--------|
			       |  . .
			       |----------------|
  			       |----------------|
  			       |----------------| gtr 2
  			       |7-----5-0-4-0-5-|
  			       |--6-5-----------|
  			       |----------------|

  |------------------f.o.|--gtr 1 only-----------------------x2--gtr 1 &
2-------------

|----------------------|------------------------------------'---------------
---------

|----------------------|------------------------------------'---------------
---------

|----------------------|------------4-444-----4-------------'---------------
-4-----4-

|2-2-2-2-2-2-6---------|------3-333---------3---------------'------3-333---3
-----3---

|0-0-0-0-0-0-4---------|2-222-------------2-----1-111-3-333-'2-222-------2--
---2-----

  ------------x6-----------------------|1st time----___
____x4---------x8-----|
  -------------|-----------------------|gtr 1 only-|1-3| 4
|----------'-----|
  -------------|-----------------------|---------------------|repeat
1st'-----|
  -------------|-----------------------|---------------------|--part
of-'-----|
  -------------|4--------2--------3----|----------------6----|--riff
A--'2----|
  -1-111-3-333-|2--------0--------1----|0"--3"--1"--4"--4----|----------'0--
--|

	Check out my personal tablature page where you can find all my newest tabs:

				www.bowelripper.f2s.com
Добавлено: 01.07.2012
Другие материалы по этой песне:
  • Аккорды и текст

Страница создана 26.03.2012
http://primanota.ru/autopsy/ravenous-freaks-chords.htm
Привет, Гость.
Предлагаем пройти революционный курс по гитаре.
Подарок от PrimaNota.Ru, забирай!