PrimaNota.ru - самый крупный в мире бесплатный архив песенных текстов, аккордов, табулатур и нот


Autopsy - Necrocannibalistic Vomitorium - текст песни, таба, видео

Регистрация Запомнить меня
Войти через:  Facebook Google Twitter Vk Yandex Mail.ru

Autopsy - Necrocannibalistic Vomitorium - текст песни, таба, видео

Печатать
Просмотров: 135
Autopsy - Necrocannibalistic Vomitorium

C Tuning aka two whole steps down


INTRO RIFF 0:00 1x
|-------------------------------------------------------------------------|
|-------------------------------------------------------------------------|
|---------7-6~~-------------------7--6~~--------------------7-6~~---------|
|-------7------7~~/10~~--------7---------7~~/10~~---------7-------7--/10--|
|-----5----------------------5-------------------------5----------7--/10--|
|-/4~~-------------------/4~~----------------------/4~~-----------5--/8---|
CTND  0:00 1X
|--------------THIS-IS-THE-HARMONY-FOR-THE-ABOVE-RIFF---------------------|
|-------------------------------------------------------------------------|
|---------7-6~~-------------------10-9~~---------------------14-13~~------|
|-------7------7~~/10~~--------10-------10~~/13~~---------14-------14-17~~|
|-----5----------------------8-------------------------12-----------------|
|-/4~~-------------------/7~~---------------------/11~~-------------------|


1ST VERSE 0:21 2x
|-------------------------------------------------------------------------|
|-------------------------------------------------------------------------|
|-------------------------------------------------------------------------|
|-------------------------------------------------------------------------|
|----------3h4p3-3h4p3--------1h2p1-1h2p1--------3h4p3-3h4p3---4/5-4/5/3--|
|--33333333-----------22222222-----------33333333--------------2/3-2/3/1--|
   PMPMPMPM           PMPMPMPM           PMPMPMPM             PMPM PMPMPM

2ND VERSE  2x
|-------------------------------------------------------------------------|
|-------------------------------------------------------------------------|
|-----------------------------------------------------------------TRILL---|
|-------------9-------------TRILLING------------9--------9-----8--7h8-8---|
|-----------8---8-----------7h8-6h7-----------8---8----8---8p7------------|
|--77777777---------66666666---------77777777--------7--------------------|
   PMPMPMPM         PMPMPMPM         PMPMPMPM       PMPMPMPMPMPM


BREAK RIFF 0:41 1x
|--------------LIGHT-PALM-MUTING-OVER-ALL-CHORDS-------------------------|
|------------------------------------------------------------------------|
|----HOLD---------------HOLD-HOLD-HOLD--------HOLD---------HOLD-HOLD-----|
|-----9------------------4----3---/6----9-9----6----9-10----6----5-------|
|-----7----7-------------2----1---/4----7-7----4----7-8-----4----3-------|
|-----7----7--6b7r6~~~---2----1---/4----7-7----4----7-8-----4----3-------|
                                       PMPM         PMPM

3RD VERSE 1:07  1x
|-------------------------------------------------------------------------|
|-------------------------------------------------------------------------|
|-------------------------------------------------------------------------|
|--------------------------------------SLIGHT-----------------------------|
|---------------5-4---------------------HOLD------------------------------|
|--4--4h5-44--3-----5-4-2-----4--4h5-44--2---2-3p2p1----------------------|

CTND  1:14
|-------------------------------------------------------------------------|
|-------------------------------------------------------------------------|
|-------------------------------------------------------------------------|
|-------------------------------------------------------------------------|
|---------------5-4-------------------------------------------------------|
|--4--4h5-44--3-----5-4-2-----4--4h5-44--3p2p1-1h2h3----------------------|

CTND  1:20
|-------------------------------------------------------------------------|
|-------------------------------------------------------------------------|
|-------------------------------------------------------------------------|
|--------------------------------------SLIGHT-----------------------------|
|---------------5-4---------------------HOLD------------------------------|
|--4--4h5-44--3-----5-4-2-----4--4h5-44--3---3-4p3p2----------------------|

CTND  1:27
|-----------------------------------------ERIC'S--------------------------|
|---------------------------------------SOLO-BEGINS-----------------------|
|-------------------------------------------------------------------------|
|-----------------------------------------7---6---------------------------|
|---------------5-4-----------------------5---4---------------------------|
|--4--4h-5-44--3-----5-4-2-----4--4h5-44--5---4---------------------------|


SOLO RYTHM 1x  1:33
|-------------------------------------------------------------------------|
|-------------------------------------------------------------------------|
|-------------------------------------------------------------------------|
|------7---6--------7---6--------7---6------------------------------------|
|------5---4--------5---4--------5---4------------------------------------|
|------5---4--------5---4--------5---4------------------------------------|

ERIC'S SOLO  1:33                                       1:35
|-------------------------------------------------------------------------|
|---------------------------------12h14h15p14p12--------22p20p19----------|
|-------------------------11h12h14---------------13~~~----------21p19p18--|
|-----------91112-11~~~---------------------------------------------------|
|------91012--------------------------------------------------------------|
|-91012-------------------------------------------------------------------|
 PMPMPMPMPMPMPMPM
                                 1:36
|--------------------------------20b21~~-20p18-20p17--19p17-16~~~~--------|
|-----------------------19h20h22---------------------------HALF-----------|
|--------------18h19h21----------------------------------STEP-BEND--------|
|-----18h19h21--------------------------------------------VIBRATO---------|
|-------------------------------------------------------------------------|
|-------------------------------------------------------------------------|
  1:38
|-------------------------------------------------------------------------|
|-12h14-15*hbr--14h15-14b15~~~--------------------------------------------|
|-------pinch------------------12h13p12-13.-13b14r~~~--12h13p12-----------|
|------harmonic-----------------------------------------------------------|
|-----half-bend-----------------------------------------------------------|
|------release------------------------------------------------------------|
   1:43
|-------------------------------------------------------------------------|
|-------------------------------------------------------------------------|
|-1210-910-9------9-------------------------------------------------------|
|-----------12109--1211-12p10-9h10p9---9h10p9----------------------PINCH--|
|-----------------------------------12-------12p10p9-12p10p9------HARMONIC|
|-----------------------------------------------------------12-10-9-9*~~~-|
  PMPMPMPMPMPMPMPMPMPMPMPMPMPMPMPMPMPMPMPMPMPMPMPMPMPMPMPMPMPMPMPMPM


INTRO REPRISE  1:48   2x
|-------------------------------------------------------------------------|
|-------------------------------------------------------------------------|
|-------------------------------------------------------------------------|
|-------------------------------------------------------------------------|
|----------3h4p3-3h4p3--------1h2p1-1h2p1--------3h4p3-3h4p3---4/5-4/5/3--|
|--33333333-----------22222222-----------33333333--------------2/3-2/3/1--|
   PMPMPMPM           PMPMPMPM           PMPMPMPM             PMPM PMPMPM


VERSE RIFF REPRISE   1:58
|-------------------------------------------------------------------------|
|-------------------------------------------------------------------------|
|------------------------------------------------------------------TRILL--|
|-------------9-------------TRILLING------------9--------9------8--7h8-8--|
|-----------8---8-----------7h8-6h7-----------8---8----8---8--7-----------|
|--77777777---------66666666---------77777777--------7--------------------|

CTND  2:02
|----------------------------------------------------------------TRILL----|
|--THIS--IS--ERIC'S--HARMONY--PLAYED--THE--LAST--TIME--12-----11-10h11-11-|
|---------------------------------------------------10---10-9-------------|
|------------9------------TRILLING-----------9----9-----------------------|
|----------8---8----------7h8-6h7----------8---8--------------------------|
|-77777777--------66666666--------77777777--------------------------------|

Добавлено: 16.06.2013
Другие материалы по этой песне:
  • Аккорды и текст

Страница создана 13.03.2012
http://primanota.ru/autopsy/necrocannibalistic-vomitorium-chords.htm
Привет, Гость.
Предлагаем пройти революционный курс по гитаре.
Подарок от PrimaNota.Ru, забирай!