PrimaNota.ru - самый крупный в мире бесплатный архив песенных текстов, аккордов, табулатур и нот


Autopsy - In The Grip Of Winter - текст песни, таба, видео

Регистрация Запомнить меня
Войти через:  Facebook Google Twitter Vk Yandex Mail.ru

Autopsy - In The Grip Of Winter - текст песни, таба, видео

Печатать
Просмотров: 138
Autopsy in the grip of winter

Tuning C F A# D# G C 
2 Whole steps down


INTRO    0:01   4 X
C |------------------------------------------------------------------------|
G |------------------------------------------------------------------------|
D#|------------------------------------------------------------------------|
A#|------------------------------------------------------------------------|
F |--------9/10-9------9/9-8------7/8-7----333333--------------------------|
C |---0-0--7/8--7----0-6/7-6----0-5/6-5----111111--------------------------|

CNTD     0:17   2 X
C |------------------------------------------------------------------------|
G |------------------------------------------------------------------------|
D#|------------------------------------------------------------------------|
A#|------------------------------------------------------------------------|
F |------------------------------------------------------------------------|
C |---0000--0-0-7/8-7-----0-6/7-6----0-5/6-5----111111---------------------|




        0:25   2 x
C |------------------------------------------------------------------------|
G |------------------------------------------------------------------------|
D#|------------------------------------------------------------------------|
A#|--------------9/10-9-----8/9-8-----7/8-7--------------------------------|
F |----------7-7---------7---------7---------888888------------------------|
C |------------------------------------------------------------------------|
               ^^^^^^^^^^^^^^^^^^^^^^^^^^^^^^^^^^^^^^^^^^^^
                    PLAYED TOGETHER AS A HARMONY (2 TIMES)
               \/\/\/\/\/\/\/\/\/\/\/\/\/\/\/\/\/\/\/\/\/\/
C |------------------------------------------------------------------------|
G |------------------------------------------------------------------------|
D#|--------------11/12-11-----10/11-10-----9/10-9--------------------------|
A#|----------9-9-----------9------------9---------101010101010-------------|
F |------------------------------------------------------------------------|
C |------------------------------------------------------------------------|



      0:34  HOLD UNTIL NEXT VERSE
C |------------------------------------------------------------------------|
G |------------------------------------------------------------------------|
D#|------------------------------------------------------------------------|
A#|---HOLD-----------------------------------------------------------------|
F |----2-------------------------------------------------------------------|
C |----0-------------------------------------------------------------------|


  VERSE  0:42    2 X
C |------------------------------------------------------------------------|
G |------------------------------------------------------------------------|
D#|------------------------------------------------------------------------|
A#|--HOLD------------------HOLD--------------HOLD-------------HOLD--2-3-2--|
F |---2----4---4---------5---4---4---4~----2---4---4---3---3----3---0-1-0--|
C |---0----2---2---2~----3---2---2---------0---2---2---1---1----1----------|
          PM  PM            PM  PM            PM  PM  PM  PM

  
 VOCALS BREAK   1:15
C |------------------------------------------------------------------------|
G |------------------------------------------------------------------------|
D#|------------------------------------------------------------------------|
A#|------------------------------------------------------------------------|
F |-------6-------7--------6--------7-------6---------7--------------------|
C |-------6-------5--------6--------5-------6---------5--------------------|

   CNTD          1:24
C |------------------------------------------------------------------------|
G |------------------------------------------------------------------------|
D#|------------------------------------------------------------------------|
A#|------------------------------------------------------------------------|
F |-----6--7-----6--7------------------------------------------------------|
C |-----6--5-----6--5------------------------------------------------------|




  BREAK      1:26    X 2
C |------------------------------------------------------------------------|
G |------------------------------------------------------------------------|
D#|------------------------------------------------------------------------|
A#|------------------------------------------------------------------------|
F |-----------8--7--6----8-7-6----------8--7--6----8-7-6-------------------|
C |-----------6--5--4----6-5-4----------6--5--4----6-5-4-------------------|


   FIRST SOLO RYTHM   1:32  X 2
C |------------------------------------------------------------------------|
G |------------------------------------------------------------------------|
D#|------------------------------------------------------------------------|
A#|------------------------------------------------------------------------|
F |------------------------------------------------------------------------|
C |-----------0-3-4-0---3H4-4-------0-3-4-0---3H4-4------------------------|

   CTND  1:39     X 2
C |------------------------------------------------------------------------|
G |------------------------------------------------------------------------|
D#|------------------------------------------------------------------------|
A#|------------------------------------------------------------------------|
F |-----------8--7--6----8-7-6----------8--7--6----8-7-6-------------------|
C |-----------6--5--4----6-5-4----------6--5--4----6-5-4-------------------|



    SECOND SOLO RYTHM  1:44
C |------------------------------------------------------------------------|
G |------------------------------------------------------------------------|
D#|------------------------------------------------------------------------|
A#|------------------------------------------------------------------------|
F |------------------------------------------------------------------------|
C |-----------0-3-4-0---3H4-4-------0-3-4-0---3H4-4------------------------|




  SOLO'S END 1:51    
C |------------------------------------------------------------------------|
G |------------------------------------------------------------------------|
D#|------------------------------------------------------------------------|
A#|------------------------------------------------------------------------|
F |---8--7--6----8-7-6-------8--7--6----8-7-6-------8--7--6----8-7-6-------|
C |---6--5--4----6-5-4-------6--5--4----6-5-4-------6--5--4----6-5-4-------|

   CTND      1:55
C |------------------------------------------------------------------------|
G |------------------------------------------------------------------------|
D#|------------------------------------------------------------------------|
A#|------------------------------------------------------------------------|
F |-----8--7--6--8-----7----6----1-----------------------------------------|
C |-----6--5--4--6-----5----4----1-----------------------------------------|




   SECOND VERSE    1:58      2 X
C |------------------------------------------------------------------------|
G |------------------------------------------------------------------------|
D#|------------------------------------------------------------------------|
A#|------------------------------------------------------------------------|
F |------------------------------------------------------------------------|
C |---0000--0-0-7/8-7-----0-6/7-6----0-5/6-5----111111---------------------|


   CTND    2:07   2 X    
C |------------------------------------------------------------------------|
G |------------------------------------------------------------------------|
D#|------------------------------------------------------------------------|
A#|--------------9/10-9-----8/9-8-----7/8-7--------------------------------|
F |----------7-7---------7---------7---------888888------------------------|
C |------------------------------------------------------------------------|
               ^^^^^^^^^^^^^^^^^^^^^^^^^^^^^^^^^^^^^^^^^^^^
                    PLAYED TOGETHER AS A HARMONY (2 TIMES)
               \/\/\/\/\/\/\/\/\/\/\/\/\/\/\/\/\/\/\/\/\/\/
C |------------------------------------------------------------------------|
G |------------------------------------------------------------------------|
D#|--------------11/12-11-----10/11-10-----9/10-9--------------------------|
A#|----------9-9-----------9------------9---------101010101010-------------|
F |------------------------------------------------------------------------|
C |------------------------------------------------------------------------|



  
  THIRD VERSE  2:15  -   3 X
C |------------------------------------------------------------------------|
G |------------------------------------------------------------------------|
D#|------------------------------------------------------------------------|
A#|------------------------------------------------------------------------|
F |--------9/10-9------9/9-8------7/8-7----333333--------------------------|
C |---0-0--7/8--7----0-6/7-6----0-5/6-5----111111--------------------------|

CTND    2:27
C |------------------------------------------------------------------------|
G |------------------------------------------------------------------------|
D#|------------------------------------------------------------------------|
A#|------------------------------------------------------------------------|
F |--------9/10-9------9/9-8------7/8-7--3--6--2-----3--6-2----------------|
C |---0-0--7/8--7----0-6/7-6----0-5/6-5--1--4--0-----1--4-0----------------|


  LEADING TO CLEAN PART  2:36
C |------------------------------------------------------------------------|
G |------------------------------------------------------------------------|
D#|------------------------------------------------------------------------|
A#|-----HOLD-HOLD-HOLD-----------------------------------------------------|
F |------3----6----7-------------------------------------------------------|
C |------1----4----5-------------------------------------------------------|





(This is played distorted NOT clean, just the guitar volume turned down)
 SECOND BREAK   2:46     3 x
C |------------------------------------------------------------------------|
G |------------------------------------------------------------------------|
D#|------------------------------------------------------------------------|
A#|---------RING-----------------------------------------------------------|
F |-------3--4--------3-4-3-4--RING----------------------------------------|
C |----5------------5-----------5------------------------------------------|


CTND (Full Distortion)  3:16    4 X
CONTINUE AS SOLO RYTHM
C |------------------------------------------------------------------------|
G |------------------------------------------------------------------------|
D#|------------------------------------------------------------------------|
A#|-------------------HOLD---------------------HOLD------------------------|
F |------------7---10--11-------7-10-11-10-11---7--------------------------|
C |------------5---8---9--------5-8--9--8--9----5--------------------------|




MAIN SOLO   3:17   SLIGHT WAH 
All vibrato is done w/ floyd rose tremolo, notes are pre-bent w/ fingers
Normally notes are done with floyd rose and harmonics. If you watch
live vids he doesnt use any harmonics

       DIVE
C |----21b--21b~~~21b~---(18)17b---17b~~~~--17(15)-17b---------------------|
G |----FULL-FULL--1.5--------1/4---1/4-------------FULL--16-17-------------|
D#|----BEND-BEND--BEND-------BEND--BEND------------BEND---------16b~~~~~~--|
A#|-------------------------------------------------------------HALF-------|
F |-------------------------------------------------------------BEND-------|
C |------------------------------------------------------------------------|

        3:30                     HEAVIER WAH USE
C |------------------------------------------------------------------------|
G |-------------------------5-4---3---2----------5-4---3---2---------------|
D#|-----12b~~~~8b~~~~~----2------4---4--2------2-----4---4---2-------------|
A#|-----HALF--HALF---------------------------------------------------------|
F |-----BEND--BEND---------------------------------------------------------|
C |------------------------------------------------------------------------|

      3:37                                           TRILL
C |---------------------DIVE-----17-15-17---/20~~~---17-20-----------------|
G |---17h18h20p18p17----20br~~~----------------------W/BAR-----------------|
D#|----------------(19)-FULL-----------------------------------------------|
A#|---------------------BEND-----------------------------------------------|
F |------------------------------------------------------------------------|
C |------------------------------------------------------------------------|

       3:46                         SLOW DIVE
C |---(20p19p17)-----------------------20b--------17b---17p15--------------|
G |-------------(20p19p17)-------------FULL-------FULL-------(15)----------|
D#|-----------------------(19p18p16)---BEND-------BEND-----------16b~~~~~~-|
A#|--------------------------------------------------------------HALF------|
F |--------------------------------------------------------------BAND------|
C |------------------------------------------------------------------------|



  3:59
C |------------------------------------------------------------------------|
G |------------------------------------------------------------------------|
D#|------------------------------------------------------------------------|
A#|------------------------------------------------------------------------|
F |---8--7--6----8-7-6---------8--7--6----8-7-6--------8--7--6----8-7-6----|
C |---6--5--4----6-5-4---------6--5--4----6-5-4--------6--5--4----6-5-4----|


  END  4:03
C |------------------------------------------------------------------------|
G |------------------------------------------------------------------------|
D#|------------------------------------------------------------------------|
A#|------------------------------------------------------------------------|
F |--8--7--6----8-----7-----6-----3----------2--2--------------------------|
C |--6--5--4----6-----5-----4-----1----------0--0--------------------------|
                                            PM  PM
Добавлено: 30.03.2012
Другие материалы по этой песне:

Страница создана 04.03.2012
http://primanota.ru/autopsy/in-the-grip-of-winter-chords.htm
Привет, Гость.
Предлагаем пройти революционный курс по гитаре.
Подарок от PrimaNota.Ru, забирай!