PrimaNota.ru - самый крупный в мире бесплатный архив песенных текстов, аккордов, табулатур и нот


Autopsy - Geek - текст песни, таба, видео

Регистрация Запомнить меня
Войти через:  Facebook Google Twitter Vk Yandex Mail.ru

Autopsy - Geek - текст песни, таба, видео

Печатать
Просмотров: 207
-AUTOPSY - GEEK from the "Shitfun" CD (c) 1995 Peaceville
-Transcribed by Chris Myhre. Version 1.1 March 2000
-For questions, corrections, etc email me: bowel_ripper@hotmail.com
-For best print edit the left/right margins in page setup to make the tab fit the sheet
-Tuning: two steps down (1:C, 2:G, 3:D#, 4:A#, 5:F, 6:C)
-Notation legend: h = hammer-on; . = palm mute; \ = slide down;
 pm = palm muted; br = half bend and release; * = see note; ~ = vibrato

   riff A      _________________
1>|gtr 1 & 2--|    10         x10--gtr 1--------.--gtr 2--------|riff B-------------------
2>|-----------------------------|---------------.---------------|gtr 1 & 2----------------
3>|-----------------------------|---------------.---------------|-------------------------
4>|------4-----------4----------|---------------.---------------|-------------------------
5>|----2---2-------2---2---2----|--------5------.--------5------|--------5-----------5\4--
6>|1-1-------1-1-1-------1-0----|1-1-1-1-5------.1-1-1-1-5------|1-1-1-1-5---1-1-1-1-5\4--
				 . . . .         . . . .
								      * gtr 1 harmonizes
  --------------------------------x6--riff C---------------x4-----x4----4th - 8th time-----x8
  ---------------------------------|------------------------|------|------------------------|
  ---------------------------------|------------------------|repeat|-------------*---*---*--|
  ---------------------------------|------------------------|riff B|------------3h5-3h5-3h5-|
  ---------------------------------|8-8-7\------3h5-3h5-3h5-|------|8-8-7\------3h5-3h5-3h5-|
  -1-1-1-1-2-2-4-4-1-1-4-4-5-5-4-4-|8-8-7\--3h5-------------|------|8-8-7\--3h5-------------|
				    . .			            . .
   riff D
  |1st time gtr 1 only------------x6--riff E----------x2-------------------- * gtr 2 plays
  |--------------------------------|--------------*----'--------------------   right-side
  |----------stop here last time---|--------------|4---'--------------------   chord
  |---------------|----------------|-----------5-4|4---'-----------5-4------
  |---------------v----------------|5--4-----4-3-2|--4-'5--4-----4-3-2-4-5--
  |11111111222222123333333333333333|3--2-----2-------2-'3--2-----2-----2-5--

  -----------------|------|w/lead|-------------------------------x2-(w/lead)-|
  -----------------|------|------|--------------------------------|----------|
  -----------------|repeat|repeat|--------------------------------|--repeat--|
  -----5-4---------|riff D|riff E|--------------------------------|--riff C--|
  ---4-3-2-5-4-----|------|------|--------------------------------|----------|
  ---2-----5-4-----|------|------|22222222333333234444444444444444|----------|

   lead gtr 3, * gtr 4
  |-----------------------------------------11~-------13-12----15~----15-17-17br-18-14~----|
  |----------------------------------12-13--11*----12-------12-15*------------------14*----|
  |-----------------------------10-9-------------------------------------------------------|
  |---------------9-10--9-----9------------------------------------------------------------|
  |-----------8-7---10*-9*-----------------------------------------------------------------|
  |8--7-----7------------------------------------------------------------------------------|

  |-------------x3---------'------|(w/lead)--x10--------------------------------|------|
  |--------------'---------'------|------------|--------------------------------|------|
  |--------------'---------'repeat|------------|--------------------------------|repeat|
  |8--2-6----4---'8--2-6---'-riff-|------4-----|--------------------------------|riff A|
  |6--0-4----2-3-'6--0-4---'------|----2---2---|2-----3-2-------2-----3-2-------|------|
  |--------11--1-'---------'------|1-1-------1-|0-----1-0-------0-----1-0-------|------|
           ..
Добавлено: 02.05.2012
Другие материалы по этой песне:
  • Аккорды и текст

Страница создана 13.03.2012
http://primanota.ru/autopsy/geek-chords.htm
Привет, Гость.
Предлагаем пройти революционный курс по гитаре.
Подарок от PrimaNota.Ru, забирай!