PrimaNota.ru - самый крупный в мире бесплатный архив песенных текстов, аккордов, табулатур и нот


Autopsy - Charred Remains - текст песни, таба, видео

Регистрация Запомнить меня
Войти через:  Facebook Google Twitter Vk Yandex Mail.ru

Autopsy - Charred Remains - текст песни, таба, видео

Печатать
Просмотров: 150
_____________________________________________________________________________
-AUTOPSY - CHARRED REMAINS from the "Severed Survival" CD (c) 1990 Peaceville
-Transcribed by Chris Myhre. Version 1.2b June 2002 (last ver: 1.2 Apr 2002)
-Email: bowel_ripper@hotmail.com - Website: http://home.no.net/bowelrip
-For best print edit the left/right margins in page setup to make the tab fit the sheet
-Tuning: 1.75 steps down (somewhere between C# and C)
-Notation legend: * = see note; . = palm mute; / = slide up; p = pull-off; h = hammer-on;
                ( ) = played randomly/uncertain if played; " = tremolo pick

 * gtr 2 strikes chord only
1>|riff A-------------x4--gtr 1 & 2----x4--riff B------------------------____________________
2>|gtr 1---------------|----------------|-------------------------------|       1 - 3
3>|--------------------|----------------|----------------------------------------------------
4>|*-------------------|----6-----------|----------------4-----------3-4-----------------6---
5>|4---5---4---4---3---|4---4---7---3---|5---------------2---5-------1-2-4---------------4---
6>|2-----2---2---1---1-|2-------5---1---|3-------------------3-----------2-------------------
                                         "                   "        /  "

 ___________x4------|------|----------|whole riff x2-----------________________________
             |------|------|----------|-----------------------|        1, 3            '
 ------------|repeat|repeat|----------|------------------------------------------------'
 --------3-4-|riff A|riff B|----------|------------------------------------------------'
 4-------1-2-|------|------|4---------|4---4-4-4-4-5---5-5-5-5-4---4-4-4-4-----5-------'
 2-----------|------|------|2---------|2---2-2-2-2-3---3-3-3-3-2---2-2-2-2-2-------3---'
          /                  (slight pm)-> . . . .     . . . .     . . . .

 _______________________x3----------------------------------------------------------------
'      2                 '----------------------------------------------------------------
'------------------------'----------------------------------------------------------------
'------------------------'----------------3-----------------------------------------------
'3---3-3-3-3-----3-------'4-------3---4---1---4---3---3-3-3-3-3---3-3-3-3-----------------
'1---1-1-1-1-1-------4---'2-------1---2-------2---1---1-1-1-1-1---1-1-1-1-0-0-0-0-0-0-0-0-
     . . . .

 --------------------------------|-----------------x4----------'------------------------------
 --------------------------------|------------------|----------'------------------------------
 --------------------------------|------------------|----------'------------------------------
 --------------------------------|-----6------------|----------'------------------------------
 --------4-5-----4-5-----4-5-----|4----4----7---3---|----------'------3-2---------------------
 0-0-0-0-2-3-----2-3-----2-3-----|2---(4)---5---1---|2-----2-3-'1---------4-----4-5-3-----3-4-
          /       /       /                          "      h   "      p  "      h  "      h

 ----------|------------------------------------------------_______________x4-------x5--------
 ----------|-----------------------------------------------|   1 - 3        |--------|--------
 ----------|----------------------------------------------------------------|-repeat-|--------
 ----------|----------------------------------------------------------------|-riff B-|--------
 ----------|3-------------4-3-------------4-2---------------------------3---|(w/solo)|--------
 2-----2-3-|1---11111111112-1---11111111112-0---000000000000333333333333--4-|--------|2-----5-
 "      h       ..........      ..........      ........................              "     "

 --------_______ ___________x4--gtr 1-'-----------------* gtr 2--------x6----|
 -------| 1-3   |    4       |--------'-------------------joins here----'----|
 ----------------------------|--------'---------------------------------'----|
 ----------------------------|--------'---------------------------------'----|
 ----------------2-----------|--------'------------------------*--------'3---|
 1-----4-0-----3-0-----------|0---4---'1---5---4---1---4---3---0---3h4--'1---|
 "     " "
Добавлено: 01.04.2012
Другие материалы по этой песне:

Страница создана 01.04.2012
http://primanota.ru/autopsy/charred-remains-chords.htm
Привет, Гость.
Предлагаем пройти революционный курс по гитаре.
Подарок от PrimaNota.Ru, забирай!