PrimaNota.ru - самый крупный в мире бесплатный архив песенных текстов, аккордов, табулатур и нот


Autopilot Off - Exit Signs - текст песни, таба, видео

Регистрация Запомнить меня
Войти через:  Facebook Google Twitter Vk Yandex Mail.ru

Autopilot Off - Exit Signs - текст песни, таба, видео

Печатать
Просмотров: 169
Уроки эстрадного вокала в Санкт-Петербурге
-------------------------------------------------------------------------------
                             EXIT SIGNS - Autopilot Off
-------------------------------------------------------------------------------
Tabbed by: empty_handed

Tuning: standard

intro

guitar 1
e|---------------------------------------------------------------------------|
B|8887778887778877888777888777887788877788877788778887778887778--------------|
G|7777777777777777777777777777777777777777777777777777777777777--------------|
D|---------------------------------------------------------------------------|
A|---------------------------------------------------------------------------|
E|---------------------------------------------------------------------------|

guitar 2
e|---------------------------------------------------------------------------|
B|---------------------------------------------------------------------------|
G|77777777777777775555555555555555777777777777777755555555555555-------------|
D|77777777777777775555555555555555777777777777777755555555555555-------------|
A|55555555555555553333333333333333555555555555555533333333333333-------------|
E|---------------------------------------------------------------------------|

guitar 1
e|---------------------------------------------------------------------------|
B|---------------------------------------------------------------------------|
G|---------------------------------------------------------------------------|
D|---------------------------------------------------------------------------|
A|5553335553335578888888777873-55533355533355788888881010109835~-------------| 10's
E|---------------------------------------------------------------------------|

guitar 2
e|---------------------------------------------------------------------------|
B|---------------------------------------------------------------------------|
G|---------------------------------------------------------------------------|
D|555555555555555588888888888888885555555555555555888888888888888------------|
A|555555555555555588888888888888885555555555555555888888888888888------------|
E|333333333333333366666666666666663333333333333333666666666666666------------|

verse

both guitars
e|---------------------------------------------------------------------------|
B|----------------------------------------------------------------8-7--------|
G|77777777777777777777777777777777777777777777777777777777777777--7-7--------|
D|xxxxxxxxxxxxxxxxxxxxxxxxxxxxxxxxxxxxxxxxxxxxxxxxxxxxxxxxxxxxxx-------------|
A|55555555555555555555555555555555555555555555555555555555555555-------------|
E|---------------------------------------------------------------------------|

e|---------------------------------------------------------------------------|
B|---------------------------------------------------------------------------|
G|77777777777777777777777777777777777777777777777-777777---------------------|
D|77777777777777777777777777777777777777777777777-777777---------------------|
A|55555555555555555555555555555555555555555555555-555555---------------------|
E|---------------------------------------------------------------------------|
  .. .. .. .. .. .. .. .. .. .. .. .. .. .. .. ..

pre-chorus
e|---------------------------------------------------------------------------|
B|---------------------------------------------------------------------------|
G|---------------------------------------------------------------------------|
D|5555555588888888555555558888888--------------------------------------------|
A|5555555588888888555555558888888--------------------------------------------|
E|3333333366666666333333336666666--------------------------------------------|

chorus
e|---------------------------------------------------------------------------|
B|---------------------------------------------------------------------------|
G|7777755555-------------7777755555------------------------------------------|
D|777775555555555-888888-777775555555555-888888------------------------------|
A|555553333355555-888888-555553333355555-888888------------------------------|
E|----------33333-666666-----------33333-666666------------------------------|


e|---------------------------------------------------------------------------|
B|---------------------------------------------------------------------------|
G|777777999999101010101010-12121212121212------------------------------------| 10's and 12's
D|xxxxxxxxxxxxxxxxxxxxxxx--xxxxxxxxxxxxxx------------------------------------|
A|5555557777778-8-8-8-8-8--10101010101010------------------------------------|
E|---------------------------------------------------------------------------|


e|---------------------------------------------------------------------------|
B|---------------------------------------------------------------------------|
G|777777999999101010101010-8888-10-12----------------------------------------| 10's
D|xxxxxxxxxxxxxxxxxxxxxxx--8888-10-12----------------------------------------|
A|5555557777778-8-8-8-8-8--6666-8--10~---------------------------------------|
E|---------------------------------------------------------------------------|

verse

both guitars
e|---------------------------------------------------------------------------|
B|----------------------------------------------------------------8-7--------|
G|77777777777777777777777777777777777777777777777777777777777777--7-7--------|
D|xxxxxxxxxxxxxxxxxxxxxxxxxxxxxxxxxxxxxxxxxxxxxxxxxxxxxxxxxxxxxx-------------|
A|55555555555555555555555555555555555555555555555555555555555555-------------|
E|---------------------------------------------------------------------------|

e|---------------------------------------------------------------------------|
B|---------------------------------------------------------------------------|
G|77777777777777777777777777777777777777777777777-777777---------------------|
D|77777777777777777777777777777777777777777777777-777777---------------------|
A|55555555555555555555555555555555555555555555555-555555---------------------|
E|---------------------------------------------------------------------------|
  .. .. .. .. .. .. .. .. .. .. .. .. .. .. .. ..

pre-chorus
e|---------------------------------------------------------------------------|
B|---------------------------------------------------------------------------|
G|---------------------------------------------------------------------------|
D|5555555588888888555555558888888--------------------------------------------|
A|5555555588888888555555558888888--------------------------------------------|
E|3333333366666666333333336666666--------------------------------------------|

chorus
e|---------------------------------------------------------------------------|
B|---------------------------------------------------------------------------|
G|7777755555-------------7777755555------------------------------------------|
D|777775555555555-888888-777775555555555-888888------------------------------|
A|555553333355555-888888-555553333355555-888888------------------------------|
E|----------33333-666666-----------33333-666666------------------------------|


e|---------------------------------------------------------------------------|
B|---------------------------------------------------------------------------|
G|777777999999101010101010-12121212121212------------------------------------| 10's and 12's
D|xxxxxxxxxxxxxxxxxxxxxxx--xxxxxxxxxxxxxx------------------------------------|
A|5555557777778-8-8-8-8-8--10101010101010------------------------------------|
E|---------------------------------------------------------------------------|


e|---------------------------------------------------------------------------|
B|---------------------------------------------------------------------------|
G|777777999999101010101010-8888888-8888888-8888-10-12-----r----12\-----------| 10's
D|xxxxxxxxxxxxxxxxxxxxxxx--8888888-8888888-8888-10-12-----e----12\-----------|
A|5555557777778-8-8-8-8-8--6666666-6666666-6666-8--10~----s----10\-----------|
E|--------------------------------------------------------t------------------|


bass and drums

bridge
e|---------------------------------------------------------------------------|
B|---------------------------------------------------------------------------|
G|5-777777777777779999999999999911111111111111155555555555555----------------| 11's, not 1's
D|x-xxxxxxxxxxxxxxxxxxxxxxxxxxxxxxxxxxxxxxxxxxxxxxxxxxxxxxxxx----------------|
A|3-555555555555557777777777777799999999999999933333333333333----------------|
E|---------------------------------------------------------------------------|

e|---------------------------------------------------------------------------|
B|---------------------------------------------------------------------------|
G|---------------------------------------------------------------------------|
D|-555555555555555-88888888888888-55555555555555-8xx8xx8xx888----------------|
A|-555555555555555-88888888888888-55555555555555-8xx8xx8xx888----------------|
E|-333333333333333-66666666666666-33333333333333-6xx6xx6xx666----------------|
   ...............                ..............

chorus
e|---------------------------------------------------------------------------|
B|---------------------------------------------------------------------------|
G|7777755555-------------7777755555------------------------------------------|
D|777775555555555-888888-777775555555555-888888------------------------------|
A|555553333355555-888888-555553333355555-888888------------------------------|
E|----------33333-666666-----------33333-666666------------------------------|


e|---------------------------------------------------------------------------|
B|---------------------------------------------------------------------------|
G|777777999999101010101010-12121212121212------------------------------------| 10's and 12's
D|xxxxxxxxxxxxxxxxxxxxxxx--xxxxxxxxxxxxxx------------------------------------|
A|5555557777778-8-8-8-8-8--10101010101010------------------------------------|
E|---------------------------------------------------------------------------|


e|---------------------------------------------------------------------------|
B|---------------------------------------------------------------------------|
G|777777999999101010101010-8888888-8888888-8888-10-12\-----------------------| 10's
D|xxxxxxxxxxxxxxxxxxxxxxx--8888888-8888888-8888-10-12\-----------------------|
A|5555557777778-8-8-8-8-8--6666666-6666666-6666-8--10\-----------------------|
E|---------------------------------------------------------------------------|


| /  slide up
| \  slide down
| h  hammer-on
| p  pull-off
| ~  vibrato
| +  harmonic
| x  Mute note
===============================================================================
Добавлено: 29.02.2012
Другие материалы по этой песне:
  • Аккорды и текст

Страница создана 22.02.2012
http://primanota.ru/autopilot-off/exit-signs-chords.htm
Привет, Гость.
Предлагаем пройти революционный курс по гитаре.
Подарок от PrimaNota.Ru, забирай!