PrimaNota.ru - самый крупный в мире бесплатный архив песенных текстов, аккордов, табулатур и нот


Automatic Eye - Away From Sunshine - таба, видео

Регистрация Запомнить меня
Войти через:  Facebook Google Twitter Vk Yandex Mail.ru

Automatic Eye - Away From Sunshine - таба, видео

Печатать
Просмотров: 101
http://www.automaticeye.com

There are 2 versions of this song, so i'll try and include how to play both of
them, they're pretty much the same anyway.


Intro 1 (from youtube,myspace etc)
Guitar 1 x4
e|-----------|
B|-555-44-55-|
G|-666-66-66-|
D|-----------|
A|-----------|
E|-----------|

Alternative Intro
e|--------------------------------------------------------------------------|
B|---------5-----------------5--------------------0-----------------0-------|
G|-----6-----6---6-------6-----6---6----------2-----2---2-------2-----2---2-|
D|---6---6-----6-------6---6-----6----------2---2-----2-------2---2-----2---|
A|-4-----------------4--------------------0-----------------0---------------|
E|--------------------------------------------------------------------------|

e|-----------------------------------------------------------------------------------|
B|---------5-----------------5-------------------------------------------------------|
G|-----6-----6---6-------6-----6---6--------------3-----4-----3----------------------|
D|---6---6-----6-------6---6-----6------------4-----4-----4-----4--------------------|
A|-4-----------------4----------------------4---4-----4-----4-----4------------------|
E|----------------------------------------2---------------------------4(x16)-5(x8)-7~|

1st Chorus
Guitar 1 x2                               then
e|-------------------------------------|-------------------|
B|-------------------------------------|-------------------|
G|-66666666-22222222----------44444444-|-22222222----------|
D|-66666666-22222222-22222222-44444444-|-22222222-44444444-|
A|-44444444-00000000-22222222-22222222-|-00000000-44444444-|
E|-------------------00000000----------|----------22222222-|

Guitar 2 x2                          then
e|-------7----------------2-2-4-0-|-------------|
B|-5-4-5---5-4-5----5-4-5---------|-5~---4~---5-|
G|--------------------------------|-------------|
D|--------------------------------|-------------|
A|--------------------------------|-------------|
E|--------------------------------|-------------|


Verse
Guitar 1 x2
e|--------|
B|--------|
G|-6~---2~|
D|-6~---2~|
A|-4~---0~|
E|--------|

Guitar 2 (Repeat until 0.37)
e|-----|
B|-5---|
G|---6-|
D|-----|
A|-----|
E|-----|

Alternative version Verse
e|-------0------------|
B|------------------0-|
G|--------------------|
D|---6----------2-----|
A|-4---4------0---2---|
E|--------------------|


Guitar 1 x2
e|------------------------------------|
B|------------------------------------|
G|-66-666-666-666-6---22-222-222-22-2-|
D|-66-666-666-666-6---22-222-222-22-2-|
A|-44-444-444-444-4---00-000-000-00-0-|
E|------------------------------------|

Guitar 2
e|-------------------------------------|-------------------------------------|
B|-55-555-555-555-5---55-555-555-555-5-|-55-555-555-555-5---55-555-444-444-4-|
G|-66-666-666-666-6---66-666-666-666-6-|-66-666-666-666-6---66-666-666-666-6-|
D|-------------------------------------|-------------------------------------|
A|-------------------------------------|-------------------------------------|
E|-------------------------------------|-------------------------------------|

Guitar 1
e|--------------------------------------------------------------------|
B|--------------------------------------------------------------------|
G|-22-222-2---44-444-4---66-666-6---66-666-6------22-222-2---44-444-4-|
D|-22-222-2---44-444-4---66-666-6---66-666-6------22-222-2---44-444-4-|
A|-00-000-0---22-222-2---44-444-4---44-444-4------00-000-0---22-222-2-|
E|--------------------------------------------------------------------|


Guitar 2
e|----------------------------------------------------|
B|-55-555-444-444-555-555-555-555------55-555-444-444-|
G|-66-666-666-666-666-666-666-666------66-666-666-666-|
D|----------------------------------------------------|
A|----------------------------------------------------|
E|----------------------------------------------------|


2nd Chorus
Both Guitars x3
e|-------------------------------------|-------------------|
B|-------------------------------------|-------------------|
G|-66666666-22222222----------44444444-|-22222222----------|
D|-66666666-22222222-22222222-44444444-|-22222222-44444444-|
A|-44444444-00000000-22222222-22222222-|-00000000-44444444-|
E|-------------------00000000----------|----------22222222-|


Alternative Version
Guitar 1 x2                               then
e|-------------------------------------|------------------------------------|
B|-------------------------------------|------------------------------------|
G|-66666666-22222222----------44444444-|-22222222----------4444444444444444-|
D|-66666666-22222222-22222222-44444444-|-22222222-44444444-4444444444444444-|
A|-44444444-00000000-22222222-22222222-|-00000000-44444444-2222222222222222-|
E|-------------------00000000----------|----------22222222------------------|

Guitar 2 x2                          then
e|-------7----------------2-2-4-0-|-------------|
B|-5-4-5---5-4-5----5-4-5---------|-5~---4~---5-|
G|--------------------------------|-------------|
D|--------------------------------|-------------|
A|--------------------------------|-------------|
E|--------------------------------|-------------|


Repeat Verse but the last part is different
Guitar 1
e|--------------------------|
B|--------------------------|
G|-2~---4~---6~------2~---4-|
D|-2~---4~---6~------2~---4~|
A|-0~---2~---4~------0~---2~|
E|--------------------------|

Guitar 2
e|--------------------------|
B|-5~---4~---5~------5~---4~|
G|-6~---6~---6~------6~---6~|
D|--------------------------|
A|--------------------------|
E|--------------------------|

On the alternative version Verse 2 is played the same way as Verse 1


Repeat 2nd Chorus


Solo (both versions are the same apart from 1 or 2 notes - this is the 1st version)
Guitar 1 x2
e|-------------------------------------------|
B|-------------------------------------------|
G|-99999999---99999999---22222222---44444444-|
D|-99999999---99999999---22222222---44444444-|
A|-77777777---77777777---00000000---22222222-|
E|-------------------------------------------|


Guitar 2
e|--------------------------------------------------|
B|--------------------------------------------------|
G|------------8-9--------------------8-9---------6b-|
D|-6~--6-7-9------9-7-9/11\9---6-7-9-----9-7~-9-----|
A|--------------------------------------------------|
E|--------------------------------------------------|

Guitar 1
e|-------------------------------------------|
B|-------------------------------------------|
G|-66666666---66666666---22222222---44444444-|
D|-66666666---66666666---22222222---44444444-|
A|-44444444---44444444---00000000---22222222-|
E|-------------------------------------------|


e|-------------------------7---------------------------------------------------------------|
B|-----4-5-4---------5-4-5---5-4-5-------------4-5-4------5-4-5-777777/999999/101010101010-|
G|-4-6-------6-4-6-------------------4/6b--4-6-------6-4-6---------------------------------|
D|-----------------------------------------------------------------------------------------|
A|-----------------------------------------------------------------------------------------|
E|-----------------------------------------------------------------------------------------|


Last Chorus
Guitar 1 x3                               then
e|-------------------------------------|-------------------|
B|-------------------------------------|-------------------|
G|-88888888-44444444----------66666666-|-44444444----------|
D|-88888888-44444444-44444444-66666666-|-44444444-66666666-|
A|-66666666-22222222-44444444-44444444-|-22222222-66666666-|
E|-------------------22222222----------|----------44444444-|

Guitar 2 (2.59) then I think it plays same as guitar 1
e|----------------|
B|-6---4---6---7b-|
G|----------------|
D|----------------|
A|----------------|
E|----------------|


Outro
e|-------------|
B|-------------|
G|-4~---6~---8~|
D|-4~---6~---8~|
A|-2~---4~---6~|
E|-------------|
Добавлено: 28.07.2012
Другие материалы по этой песне:
  • Аккорды и текст

Страница создана 28.07.2012
http://primanota.ru/automatic-eye/away-from-sunshine-chords.htm
Привет, Гость.
Предлагаем пройти революционный курс по гитаре.
Подарок от PrimaNota.Ru, забирай!