PrimaNota.ru - самый крупный в мире бесплатный архив песенных текстов, аккордов, табулатур и нот


Autokarma - Fare Fare Krigsmann - таба, видео

Регистрация Запомнить меня
Войти через:  Facebook Google Twitter Vk Yandex Mail.ru

Autokarma - Fare Fare Krigsmann - таба, видео

Печатать
Просмотров: 22
Новый альбом группы 'Черный Кузнец' по культовому сериалу 'Сверхъестественное'!
Tempo = 142

[Intro]
E|----------------------------|----------------------------|----------------|
B|----------------------------|----------------------------|----------------|
G|----------------------------|----------------------------|----------------|
D|----------------------------|----------------------------|----------------|
A|--15s------17s15----12L-----|--12----12L---12-12---------|-----17----14L--|
D|--0L-------0L-0L----0-------|--0L----0-----0L-0----------|--15L15----12L--|

E|----------------------------|----------------------------|
B|----------------------------|----------------------------|
G|----------------------------|----------------------------|
D|----------------------------|----------------------------|
A|--14----14L14-14b---14------|--15s------17s15----12L-----|
D|--12L---12-12L12L---12------|--0L-------0L-0L----0-------|

E|----------------------------|----------------|-------|----------------|-------|
B|----------------------------|----------------|-------|----------------|-------|
G|----------------------------|----------------|-------|----------------|-------|
D|----------------------------|----------------|-------|--7--7--3--5L---|--5----|
A|--12----12L---12-12---------|--12-12-10-8L---|--8----|--7--7--3--5L---|--5----|
D|--0L----0-----0L-0----------|--10L10-10-8L---|--8----|--7--7--3--5L---|--5----|

[Chorus]
E|----------------|----------------|----------------|----------------|
B|----------------|----------------|----------------|----------------|
G|-----10s---7s---|-----9s---------|-----10s---7s---|-----9s---------|
D|----------------|-----------10s--|----------------|-----------10s--|
A|----------------|----------------|----------------|----------------|
D|--0-----0-------|--0-----0-------|--0-----0-------|--0-----0-------|

E|----------------|----------------|----------------|----------------|
B|----------------|----------------|----------------|----------------|
G|-----10s---7s---|-----9s---------|-----10s---7s---|-----9s---------|
D|----------------|-----------10s--|----------------|-----------10s--|
A|----------------|----------------|----------------|----------------|
D|--8-----8-------|--8-----8-------|--8-----8-------|--10----7-------|

[Verse]
E|---------------------------|----------------------------|----------------|
B|---------------------------|----------------------------|----------------|
G|o--------------------------|----------------------------|----------------|
D|o--------------------------|----------------------------|----------------|
A|-15s------17s15----12L-----|--12----12L---12-12---------|-----17----14L--|
D|-0L-------0L-0L----0-------|--0L----0-----0L-0----------|--15L15----12L--|

E|----------------------------|----------------------------|
B|----------------------------|----------------------------|
G|----------------------------|----------------------------|
D|----------------------------|----------------------------|
A|--14----14L14-14b---14------|--15s------17s15----12L-----|
D|--12L---12-12L12L---12------|--0L-------0L-0L----0-------|

E|----------------------------|----------------|---------------------------|
B|----------------------------|----------------|---------------------------|
G|----------------------------|----------------|--------------------------o|
D|----------------------------|----------------|--------------------------o|
A|--12----12L---12-12---------|--12-12-10-8L---|--8-----8L-8--8b----8------|
D|--0L----0-----0L-0----------|--10L10-10-8L---|--8L----8--8L-8L----8------|

                                                [Chorus]
E|----------|----------|----------------|-------|---------------|
B|----------|----------|----------------|-------|---------------|
G|----------|----------|----------------|-------|o---10s---7s---|
D|----------|----------|--5--5-----8L---|--8----|o--------------|
A|--8--10---|--12-8----|--5--5-----8L---|--8----|---------------|
D|--10-10---|--8--8----|--5--5-----8L---|--8----|-0-----0-------|

E|----------------|----------------|----------------|----------------|
B|----------------|----------------|----------------|----------------|
G|-----9s---------|-----10s---7s---|-----9s---------|-----10s---7s---|
D|-----------10s--|----------------|-----------10s--|----------------|
A|----------------|----------------|----------------|----------------|
D|--0-----0-------|--0-----0-------|--0-----0-------|--8-----8-------|

                                                                  [Bridge]
E|----------------|----------------|---------------|--------------|---------------------------|
B|----------------|----------------|---------------|--------------|---------------------------|
G|-----9s---------|-----10s---7s---|-----9s-------o|--------------|o10L---10-10L10------------|
D|-----------10s--|----------------|-----------10so|--------------|o------0L-0--0L------------|
A|----------------|----------------|---------------|--------------|---------------------------|
D|--8-----8-------|--8-----8-------|--10----7------|--------------|-0L----0L-0L-0L----0-------|
                                                 
E|----------------------------|----------------------------|
B|----------------------------|----------------------------|
G|--7L----7--7L-7-------------|--9L----9--9L-9-------------|
D|--0-----0L-0--0L------------|--0-----0L-0--0L------------|
A|----------------------------|----------------------------|
D|--0L----0L-0L-0L----0-------|--0L----0L-0L-0L----0-------|

E|----------------------------|----------------------------|
B|----------------------------|----------------------------|
G|--5L----5--5L-5-------------|--10L---10-10L10------------|
D|--0-----0L-0--0-------------|--------0L-0--0L------------|
A|----------------------------|----------------------------|
D|--0L----0L-0L-0L----0-------|--0L----0L-0L-0L----0-------|

E|----------------------------|----------------------------|
B|----------------------------|----------------------------|
G|--7L----7--7L-7-------------|--9L----9--9L-9-------------|
D|--0-----0L-0--0L------------|--0-----0L-0--0L------------|
A|----------------------------|----------------------------|
D|--0L----0L-0L-0L----0-------|--0L----0L-0L-0L----0-------|

E|----------------------------|----------------------------|
B|----------------------------|----------------------------|
G|--5L----5--5L-5-------------|--10L---10-10L10------------|
D|--0-----0L-0--0-------------|--------0L-0--0L------------|
A|----------------------------|----------------------------|
D|--0L----0L-0L-0L----0-------|--8L----8L-8L-8L----8-------|

E|----------------------------|----------------------------|
B|----------------------------|----------------------------|
G|--7L----7--7L-7-------------|--9L----9--9L-9-------------|
D|--0-----0L-0--0L------------|--0-----0L-0--0L------------|
A|----------------------------|----------------------------|
D|--8L----8L-8L-8L----8-------|--8L----8L-8L-8L----8-------|

E|----------------------------|----------------------------|
B|----------------------------|----------------------------|
G|--5L----5--5L-5-------------|--10L---10-10L10------------|
D|--0-----0L-0--0-------------|--------0L-0--0L------------|
A|----------------------------|----------------------------|
D|--8L----8L-8L-8L----8-------|--8L----8L-8L-8L----8-------|

E|----------------------------|----------------------------|
B|----------------------------|----------------------------|
G|--7L----7--7L-7-------------|--9L----9--9L-9-------------|
D|--0-----0L-0--0L------------|--0-----0L-0--0L------------|
A|----------------------------|----------------------------|
D|--8L----8L-8L-8L----8-------|--10L---10L10L10L---10------|

E|---------------------------|-------|------------------|----------------|-------|
B|---------------------------|-------|------------------|----------------|-------|
G|--5L----5--5L-5-----------o|-------|------------------|----------------|-------|
D|--0-----0L-0--0-----------o|-------|------------------|--7--7--3--5L---|--5----|
A|---------------------------|-------|------------------|--7--7--3--5L---|--5----|
D|--7L----7L-7L-7L----7------|-------|------------------|--7--7--3--5L---|--5----|


************************************

| b  Bend
| L - tied note
| s - slide

************************************
Добавлено: 25.05.2018
Другие материалы по этой песне:

Страница создана 25.05.2018
http://primanota.ru/autokarma/fare-fare-krigsmann-chords.htm
Привет, Гость.
Предлагаем пройти революционный курс по гитаре.
Подарок от PrimaNota.Ru, забирай!