PrimaNota.ru - самый крупный в мире бесплатный архив песенных текстов, аккордов, табулатур и нот


Autograph - Loud And Clear - драм-таба, видео

Регистрация Запомнить меня
Войти через:  Facebook Google Twitter Vk Yandex Mail.ru

Autograph - Loud And Clear - драм-таба, видео

Печатать
Просмотров: 148
Keni Richards   Tempo: 194
     W                   W                   W                 
C||-------------------|-------------------|-------------------|
C||-------------------|-------------------|-------------------|
C||-------------------|-------------------|-------------------|
C||-------------------|-------------------|-------------------|
C||-------------------|-------------------|-------------------|
C||-------------------|-------------------|-------------------|


   ^     ^     ^     ^                                
   Q     Q     Q     Q        Q     Q     Q     Q     
--------------------------|--49----46----46----46----|
--------------------------|--------------------------|
--------------------------|--------------------------|
--38----38----38----38----|--------38----------38----|
--------------------------|--------------------------|
--------------------------|--35----------35----------|


   Q     Q     Q     Q        Q     Q     Q     Q     
--46----46----46----46----|--46----46----46----46----|
--------------------------|--------------------------|
--------------------------|--------------------------|
--------38----------38----|--------38----------38----|
--------------------------|--------------------------|
--35----------35----------|--35----------35----------|


   Q     Q     E   E   Q        Q     Q     Q     Q     
--46----46----46------46----|--49----46----46----46----|
----------------------------|--------------------------|
----------------------------|--------------------------|
--------38------------38----|--------38----------38----|
----------------------------|--------------------------|
--35----------35--35--------|--35----------35----------|


   Q     Q     Q     Q        Q     Q     Q     Q     
--46----46----46----46----|--46----46----46----46----|
--------------------------|--------------------------|
--------------------------|--------------------------|
--------38----------38----|--------38----------38----|
--------------------------|--------------------------|
--35----------35----------|--35----------35----------|


   Q     Q     E   E   Q        Q     Q     Q     Q     
--46----46----46------46----|--49----46----46----46----|
----------------------------|--------------------------|
----------------------------|--------------------------|
--------38------------38----|--------38----------38----|
----------------------------|--------------------------|
--35----------35--35--------|--35----------35----------|


   Q     Q     Q     Q        Q     Q     Q     Q     
--46----46----46----46----|--46----46----46----46----|
--------------------------|--------------------------|
--------------------------|--------------------------|
--------38----------38----|--------38----------38----|
--------------------------|--------------------------|
--35----------35----------|--35----------35----------|


   Q     Q     E   E   Q        Q     Q     Q     Q     
--46----46----46------46----|--49----46----46----46----|
----------------------------|--------------------------|
----------------------------|--------------------------|
--------38------------38----|--------38----------38----|
----------------------------|--------------------------|
--35----------35--35--------|--35----------35----------|


   Q     Q     Q     Q        Q     Q     Q     Q     
--46----46----46----46----|--46----46----46----46----|
--------------------------|--------------------------|
--------------------------|--------------------------|
--------38----------38----|--------38----------38----|
--------------------------|--------------------------|
--35----------35----------|--35----------35----------|


   Q     Q     E   E   Q        Q     Q     Q     Q     
--46----46----46------46----|--49----46----46----46----|
----------------------------|--------------------------|
----------------------------|--------------------------|
--------38------------38----|--------38----------38----|
----------------------------|--------------------------|
--35----------35--35--------|--35----------35----------|


   Q     Q     Q     Q        Q     Q     Q     Q     
--46----46----46----46----|--46----46----46----46----|
--------------------------|--------------------------|
--------------------------|--------------------------|
--------38----------38----|--------38----------38----|
--------------------------|--------------------------|
--35----------35----------|--35----------35----------|


   Q     Q     Q     Q        Q     Q     Q     Q     
--46----46----46----46----|--49----46----46----46----|
--------------------------|--------------------------|
--------------------------|--------------------------|
--------38----------38----|--------38----------38----|
--------------------------|--------------------------|
--35----------35----------|--35----------35----------|


   Q     Q     E   E   Q        Q     Q     Q     Q     
--46----46----46------46----|--46----46----46----46----|
----------------------------|--------------------------|
----------------------------|--------------------------|
--------38------------38----|--------38----------38----|
----------------------------|--------------------------|
--35----------35--35--------|--35----------35----------|


   Q     Q     E   E   Q        Q     Q     Q     Q     
--46----46----46------46----|--49----46----46----46----|
----------------------------|--------------------------|
----------------------------|--------------------------|
--------38------------38----|--------38----------38----|
----------------------------|--------------------------|
--35----------35--35--------|--35----------35----------|


   Q     Q     Q     Q        Q     Q     Q     Q     
--46----46----46----46----|--46----46----46----46----|
--------------------------|--------------------------|
--------------------------|--------------------------|
--------38----------38----|--------38----------38----|
--------------------------|--------------------------|
--35----------35----------|--35----------35----------|


   Q     Q     E   E   Q        Q     Q     Q     Q     
--46----46----46------46----|--49----51----51----51----|
----------------------------|--------------------------|
----------------------------|--------------------------|
--------38------------38----|--------38----------38----|
----------------------------|--------------------------|
--35----------35--35--------|--35----------35----------|


   Q     Q     E   E   Q        Q     Q     Q     Q     
--51----51----51------51----|--51----51----51----51----|
----------------------------|--------------------------|
----------------------------|--------------------------|
--------38------------38----|--------38----------38----|
----------------------------|--------------------------|
--35----------35--35--------|--35----------35----------|


   Q     Q     E   E   Q        Q     Q     Q     Q     
--51----51----51------51----|--51----51----51----51----|
----------------------------|--------------------------|
----------------------------|--------------------------|
--------38------------38----|--------38----------38----|
----------------------------|--------------------------|
--35----------35--35--------|--35----------35----------|


   Q     Q     E   E   Q        Q     Q     Q     Q     
--51----51----51------51----|--51----51----51----51----|
----------------------------|--------------------------|
----------------------------|--------------------------|
--------38------------38----|--------38----------38----|
----------------------------|--------------------------|
--35----------35--35--------|--35----------35----------|


   Q     Q     E   E   Q        Q     Q     Q     Q     
--51----51----51------51----|--51----51----51----51----|
----------------------------|--------------------------|
----------------------------|--------------------------|
--------38------------38----|--------38----------38----|
----------------------------|--------------------------|
--35----------35--35--------|--35----------35----------|


   Q     Q     E   E   Q        Q     Q     Q     Q     
--51----51----51------51----|--51----51----51----51----|
----------------------------|--------------------------|
----------------------------|--------------------------|
--------38------------38----|--------38----------38----|
----------------------------|--------------------------|
--35----------35--35--------|--35----------35----------|


   Q     Q     E   E   Q        Q     Q     Q     Q     
--51----51----51------51----|--51----51----51----51----|
----------------------------|--------------------------|
----------------------------|--------------------------|
--------38------------38----|--------38----------38----|
----------------------------|--------------------------|
--35----------35--35--------|--35----------35----------|


   Q     Q     E   E   Q        Q     Q     Q     Q     
--51----51----51------51----|--51----51----51----51----|
----------------------------|--------------------------|
----------------------------|--------------------------|
--------38------------38----|--------38----------38----|
----------------------------|--------------------------|
--35----------35--35--------|--35----------35----------|


   Q     Q     E   E   Q        Q     Q     Q     Q     
--51----51----51------51----|--49----46----46----46----|
----------------------------|--------------------------|
----------------------------|--------------------------|
--------38------------38----|--------38----------38----|
----------------------------|--------------------------|
--35----------35--35--------|--35----------35----------|


   Q     Q     Q     Q        Q     Q     Q     Q     
--46----46----46----46----|--46----46----46----46----|
--------------------------|--------------------------|
--------------------------|--------------------------|
--------38----------38----|--------38----------38----|
--------------------------|--------------------------|
--35----------35----------|--35----------35----------|


   Q     Q     Q     Q        Q     Q     Q     Q     
--46----46----46----46----|--46----46----46----46----|
--------------------------|--------------------------|
--------------------------|--------------------------|
--------38----------38----|--------38----------38----|
--------------------------|--------------------------|
--35----------35----------|--35----------35----------|


   Q     Q     Q     Q        Q     Q     Q     Q     
--46----46----46----46----|--46----46----46----46----|
--------------------------|--------------------------|
--------------------------|--------------------------|
--------38----------38----|--------38----------38----|
--------------------------|--------------------------|
--35----------35----------|--35----------35----------|


   Q     Q     E   E   Q        Q     Q     Q     Q     
--46----46----46------46----|--49----46----46----46----|
----------------------------|--------------------------|
----------------------------|--------------------------|
--------38------------38----|--------38----------38----|
----------------------------|--------------------------|
--35----------35--35--------|--35----------35----------|


   Q     Q     Q     Q        Q     Q     Q     Q     
--46----46----46----46----|--46----46----46----46----|
--------------------------|--------------------------|
--------------------------|--------------------------|
--------38----------38----|--------38----------38----|
--------------------------|--------------------------|
--35----------35----------|--35----------35----------|


   Q     Q     E   E   Q        Q     Q     Q     Q     
--46----46----46------46----|--49----46----46----46----|
----------------------------|--------------------------|
----------------------------|--------------------------|
--------38------------38----|--------38----------38----|
----------------------------|--------------------------|
--35----------35--35--------|--35----------35----------|


   Q     Q     E   E   Q        Q     Q     Q     Q     
--46----46----46------46----|--46----46----46----46----|
----------------------------|--------------------------|
----------------------------|--------------------------|
--------38------------38----|--------38----------38----|
----------------------------|--------------------------|
--35----------35--35--------|--35----------35----------|


   Q     Q     E   E   Q        Q     Q     Q     Q     
--46----46----46------46----|--49----46----46----46----|
----------------------------|--------------------------|
----------------------------|--------------------------|
--------38------------38----|--------38----------38----|
----------------------------|--------------------------|
--35----------35--35--------|--35----------35----------|


   Q     Q     Q     Q        Q     Q     Q     Q     
--46----46----46----46----|--46----46----46----46----|
--------------------------|--------------------------|
--------------------------|--------------------------|
--------38----------38----|--------38----------38----|
--------------------------|--------------------------|
--35----------35----------|--35----------35----------|


   Q     Q     E   E   Q        Q     Q     Q     Q     
--46----46----46------46----|--49----46----46----46----|
----------------------------|--------------------------|
----------------------------|--------------------------|
--------38------------38----|--------38----------38----|
----------------------------|--------------------------|
--35----------35--35--------|--35----------35----------|


   Q     Q     E   E   Q        Q     Q     Q     Q     
--46----46----46------46----|--46----46----46----46----|
----------------------------|--------------------------|
----------------------------|--------------------------|
--------38------------38----|--------38----------38----|
----------------------------|--------------------------|
--35----------35--35--------|--35----------35----------|


   Q     Q     E   E   Q        Q     Q     Q     Q     
--46----46----46------46----|--49----51----51----51----|
----------------------------|--------------------------|
----------------------------|--------------------------|
--------38------------38----|--------38----------38----|
----------------------------|--------------------------|
--35----------35--35--------|--35----------35----------|


   Q     Q     Q     Q        Q     Q     Q     Q     
--51----51----51----51----|--51----51----51----51----|
--------------------------|--------------------------|
--------------------------|--------------------------|
--------38----------38----|--------38----------38----|
--------------------------|--------------------------|
--35----------35----------|--35----------35----------|


   Q     Q     E   E   Q        Q     Q     Q     Q     
--51----51----51------51----|--51----51----51----51----|
----------------------------|--------------------------|
----------------------------|--------------------------|
--------38------------38----|--------38----------38----|
----------------------------|--------------------------|
--35----------35--35--------|--35----------35----------|


   Q     Q     E   E   Q        Q     Q     Q     Q     
--51----51----51------51----|--51----51----51----51----|
----------------------------|--------------------------|
----------------------------|--------------------------|
--------38------------38----|--------38----------38----|
----------------------------|--------------------------|
--35----------35--35--------|--35----------35----------|


   Q     Q     E   E   Q        Q     Q     Q     Q     
--51----51----51------51----|--51----51----51----51----|
----------------------------|--------------------------|
----------------------------|--------------------------|
--------38------------38----|--------38----------38----|
----------------------------|--------------------------|
--35----------35--35--------|--35----------35----------|


   Q     Q     E   E   Q        Q     Q     Q     Q     
--51----51----51------51----|--51----51----51----51----|
----------------------------|--------------------------|
----------------------------|--------------------------|
--------38------------38----|--------38----------38----|
----------------------------|--------------------------|
--35----------35--35--------|--35----------35----------|


   Q     Q     E   E   Q        Q     Q     Q     Q     
--51----51----51------51----|--51----51----51----51----|
----------------------------|--------------------------|
----------------------------|--------------------------|
--------38------------38----|--------38----------38----|
----------------------------|--------------------------|
--35----------35--35--------|--35----------35----------|


   Q     Q     E   E   Q        Q     Q     Q     Q     
--51----51----51------51----|--51----51----51----51----|
----------------------------|--------------------------|
----------------------------|--------------------------|
--------38------------38----|--------38----------38----|
----------------------------|--------------------------|
--35----------35--35--------|--35----------35----------|


                                      ^           ^     
   Q     Q     E   E   Q        Q     Q     Q     Q     
--51----51----51------51----|--------------------------|
----------------------------|--------------------------|
----------------------------|--------------------------|
--------38------------38----|--------38----------38----|
----------------------------|--------------------------|
--35----------35--35--------|--35----35----35----35----|


         ^           ^              ^           ^     
   Q     Q     Q     Q        Q     Q     Q     Q     
--------------------------|--------------------------|
--------------------------|--------------------------|
--------------------------|--------------------------|
--------38----------38----|--------38----------38----|
--------------------------|--------------------------|
--35----35----35----35----|--35----35----35----35----|


         ^           ^              ^           ^     
   Q     Q     Q     Q        Q     Q     Q     Q     
--------------------------|--------------------------|
--------------------------|--------------------------|
--------------------------|--------------------------|
--------38----------38----|--------38----------38----|
--------------------------|--------------------------|
--35----35----35----35----|--35----35----35----35----|


         ^           ^              ^           ^     
   Q     Q     Q     Q        Q     Q     Q     Q     
--------------------------|--------------------------|
--------------------------|--------------------------|
--------------------------|--------------------------|
--------38----------38----|--------38----------38----|
--------------------------|--------------------------|
--35----35----35----35----|--35----35----35----35----|


         ^           ^                                
   Q     Q     Q     Q        Q     Q     Q     Q     
--------------------------|--49----46----46----46----|
--------------------------|--------------------------|
--------------------------|--------------------------|
--------38----------38----|--------38----------38----|
--------------------------|--------------------------|
--35----35----35----35----|--35----------35----------|


   Q     Q     E   E   Q        Q     Q     Q     Q     
--46----46----46------46----|--46----46----46----46----|
----------------------------|--------------------------|
----------------------------|--------------------------|
--------38------------38----|--------38----------38----|
----------------------------|--------------------------|
--35----------35--35--------|--35----------35----------|


                                      ^           ^     
   Q     Q     E   E   Q        Q     Q     Q     Q     
--46----46----46------46----|--------------------------|
----------------------------|--------------------------|
----------------------------|--------------------------|
--------38------------38----|--------38----------38----|
----------------------------|--------------------------|
--35----------35--35--------|--35----35----35----35----|


         ^           ^              ^           ^     
   Q     Q     Q     Q        Q     Q     Q     Q     
--------------------------|--------------------------|
--------------------------|--------------------------|
--------------------------|--------------------------|
--------38----------38----|--------38----------38----|
--------------------------|--------------------------|
--35----35----35----35----|--35----35----35----35----|


         ^           ^                                
   Q     Q     Q     Q        Q     Q     Q     Q     
--------------------------|--49----46----46----46----|
--------------------------|--------------------------|
--------------------------|--------------------------|
--------38----------38----|--------38----------38----|
--------------------------|--------------------------|
--35----35----35----35----|--35----------35----------|


   Q     Q     E   E   Q        Q     Q     Q     Q     
--46----46----46------46----|--49----46----46----46----|
----------------------------|--------------------------|
----------------------------|--------------------------|
--------38------------38----|--------38----------38----|
----------------------------|--------------------------|
--35----------35--35--------|--35----------35----------|


                                      ^           ^     
   Q     Q     E   E   Q        Q     Q     Q     Q     
--46----46----46------46----|--------------------------|
----------------------------|--------------------------|
----------------------------|--------------------------|
--------38------------38----|--------38----------38----|
----------------------------|--------------------------|
--35----------35--35--------|--35----35----35----35----|


         ^           ^              ^           ^     
   Q     Q     Q     Q        Q     Q     Q     Q     
--------------------------|--------------------------|
--------------------------|--------------------------|
--------------------------|--------------------------|
--------38----------38----|--------38----------38----|
--------------------------|--------------------------|
--35----35----35----35----|--35----35----35----35----|


         ^     ^     ^                                
   Q     Q     Q     Q        Q     Q     Q     Q     
--------46----46----46----|--49----51----51----51----|
--------------------------|--------------------------|
--------------------------|--------------------------|
--------38----38----38----|--------38----------38----|
--------------------------|--------------------------|
--35----35----35----35----|--35----------35----------|


   Q     Q     E   E   Q        Q     Q     Q     Q     
--51----51----51------51----|--51----51----51----51----|
----------------------------|--------------------------|
----------------------------|--------------------------|
--------38------------38----|--------38----------38----|
----------------------------|--------------------------|
--35----------35--35--------|--35----------35----------|


   Q     Q     E   E   Q        Q     Q     Q     Q     
--51----51----51------51----|--51----51----51----51----|
----------------------------|--------------------------|
----------------------------|--------------------------|
--------38------------38----|--------38----------38----|
----------------------------|--------------------------|
--35----------35--35--------|--35----------35----------|


   Q     Q     E   E   Q        Q     Q     Q     Q     
--51----51----51------51----|--51----51----51----51----|
----------------------------|--------------------------|
----------------------------|--------------------------|
--------38------------38----|--------38----------38----|
----------------------------|--------------------------|
--35----------35--35--------|--35----------35----------|


   Q     Q     E   E   Q        Q     Q     Q     Q     
--51----51----51------51----|--51----51----51----51----|
----------------------------|--------------------------|
----------------------------|--------------------------|
--------38------------38----|--------38----------38----|
----------------------------|--------------------------|
--35----------35--35--------|--35----------35----------|


   Q     Q     E   E   Q        Q     Q     Q     Q     
--51----51----51------51----|--51----51----51----51----|
----------------------------|--------------------------|
----------------------------|--------------------------|
--------38------------38----|--------38----------38----|
----------------------------|--------------------------|
--35----------35--35--------|--35----------35----------|


   Q     Q     E   E   Q        Q     Q     Q     Q     
--51----51----51------51----|--51----51----51----51----|
----------------------------|--------------------------|
----------------------------|--------------------------|
--------38------------38----|--------38----------38----|
----------------------------|--------------------------|
--35----------35--35--------|--35----------35----------|


   Q     Q     E   E   Q        Q     Q     Q     Q     
--51----51----51------51----|--51----51----51----51----|
----------------------------|--------------------------|
----------------------------|--------------------------|
--------38------------38----|--------38----------38----|
----------------------------|--------------------------|
--35----------35--35--------|--35----------35----------|


   E   E   E   E   E   E   Q        Q     Q     Q     Q     
--51------51------51------51----|--49----51----51----51----|
--------------------------------|--------------------------|
--------------------------------|--------------------------|
--38------38------38------38----|--------38----------38----|
--------------------------------|--------------------------|
------35------35------35--------|--35----------35----------|


   Q     Q     E   E   Q        Q     Q     Q     Q     
--51----51----51------51----|--51----51----51----51----|
----------------------------|--------------------------|
----------------------------|--------------------------|
--------38------------38----|--------38----------38----|
----------------------------|--------------------------|
--35----------35--35--------|--35----------35----------|


   Q     Q     E   E   Q        Q     Q     Q     Q     
--51----51----51------51----|--51----51----51----51----|
----------------------------|--------------------------|
----------------------------|--------------------------|
--------38------------38----|--------38----------38----|
----------------------------|--------------------------|
--35----------35--35--------|--35----------35----------|


   Q     Q     E   E   Q        Q     Q     Q     Q     
--51----51----51------51----|--51----51----51----51----|
----------------------------|--------------------------|
----------------------------|--------------------------|
--------38------------38----|--------38----------38----|
----------------------------|--------------------------|
--35----------35--35--------|--35----------35----------|


   Q     Q     E   E   Q        Q     Q     Q     Q     
--51----51----51------51----|--51----51----51----51----|
----------------------------|--------------------------|
----------------------------|--------------------------|
--------38------------38----|--------38----------38----|
----------------------------|--------------------------|
--35----------35--35--------|--35----------35----------|


   Q     Q     E   E   Q        Q     Q     Q     Q     
--51----51----51------51----|--51----51----51----51----|
----------------------------|--------------------------|
----------------------------|--------------------------|
--------38------------38----|--------38----------38----|
----------------------------|--------------------------|
--35----------35--35--------|--35----------35----------|


   Q     Q     E   E   Q        Q     Q     Q     Q     
--51----51----51------51----|--51----51----51----51----|
----------------------------|--------------------------|
----------------------------|--------------------------|
--------38------------38----|--------38----------38----|
----------------------------|--------------------------|
--35----------35--35--------|--35----------35----------|


   Q     Q     E   E   Q        Q     Q     Q     Q     
--51----51----51------51----|--51----51----51----51----|
----------------------------|--------------------------|
----------------------------|--------------------------|
--------38------------38----|--------38----------38----|
----------------------------|--------------------------|
--35----------35--35--------|--35----------35----------|


   Q     Q     E   E   Q        Q     Q     Q     Q     
--51----51----51------51----|--49----51----51----51----|
----------------------------|--------------------------|
----------------------------|--------------------------|
--------38------------38----|--------38----------38----|
----------------------------|--------------------------|
--35----------35--35--------|--35----------35----------|


   Q     Q     E   E   Q        Q     Q     E   E   Q     
--51----51----51------51----|--51----51----51------51----|
----------------------------|----------------------------|
----------------------------|----------------------------|
--------38------------38----|--------38------------38----|
----------------------------|----------------------------|
--35----------35--35--------|--35----------35--35--------|


   Q     Q     E   E   Q        Q     Q     Q     Q     
--51----51----51------51----|--49----51----51----51----|
----------------------------|--------------------------|
----------------------------|--------------------------|
--------38------------38----|--------38----------38----|
----------------------------|--------------------------|
--35----------35--35--------|--35----------35----------|


   Q     Q     E   E   Q        Q     Q     E   E   Q     
--51----51----51------51----|--51----51----51------51----|
----------------------------|----------------------------|
----------------------------|----------------------------|
--------38------------38----|--------38------------38----|
----------------------------|----------------------------|
--35----------35--35--------|--35----------35--35--------|


   Q     Q     E   E   Q        Q     Q     Q     Q     
--51----51----51------51----|--49----51----51----51----|
----------------------------|--------------------------|
----------------------------|--------------------------|
--------38------------38----|--------38----------38----|
----------------------------|--------------------------|
--35----------35--35--------|--35----------35----------|


   Q     Q     E   E   Q        Q     Q     E   E   Q     
--51----51----51------51----|--51----51----51------51----|
----------------------------|----------------------------|
----------------------------|----------------------------|
--------38------------38----|--------38------------38----|
----------------------------|----------------------------|
--35----------35--35--------|--35----------35--35--------|


   Q     Q     E   E   Q        Q     Q     Q     Q     
--51----51----51------51----|--51----51----51----51----|
----------------------------|--------------------------|
----------------------------|--------------------------|
--------38------------38----|--------38----------38----|
----------------------------|--------------------------|
--35----------35--35--------|--35----------35----------|

                               Tempo: 130
   Q     Q     E   E   Q        Q     Q     Q     Q     
--51----51----51------51----|--49----49----49----49----|
----------------------------|--------------------------|
----------------------------|--------------------------|
--------38------------38----|--------------------------|
----------------------------|--------------------------|
--35----------35--35--------|--35----35----35----35----|


   Q     Q     Q     Q        Q     Q     Q     Q     
--49----49----49----49----|--49----49----49----49----|
--------------------------|--------------------------|
--------------------------|--------------------------|
--------------------------|--------------------------|
--------------------------|--------------------------|
--35----35----35----35----|--35----35----35----35----|


   Q     Q     Q     Q        Q     Q     Q     Q      
--49----49----49----49----|--49----49----49----49----||
--------------------------|--------------------------||
--------------------------|--------------------------||
--------------------------|--------------------------||
--------------------------|--------------------------||
--35----35----35----35----|--35----35----35----35----||




Duration Legend
---------------
W - whole
H - half
Q - quarter
E - 8th
S - 16th
T - 32nd
X - 64th
. - note dotted
|-n-|  - n-tuplets
Добавлено: 12.01.2014
Другие материалы по этой песне:
  • Аккорды и текст

Страница создана 12.01.2014
http://primanota.ru/autograph/loud-and-clear-chords.htm
Привет, Гость.
Предлагаем пройти революционный курс по гитаре.
Подарок от PrimaNota.Ru, забирай!