PrimaNota.ru - самый крупный в мире бесплатный архив песенных текстов, аккордов, табулатур и нот


Autograph - Dance All Night - драм-таба, видео

Регистрация Запомнить меня
Войти через:  Facebook Google Twitter Vk Yandex Mail.ru

Autograph - Dance All Night - драм-таба, видео

Печатать
Просмотров: 101
     H        E   E      Q        E   E   E   E   E   E   E   E   
C||---------------------------|--49--42--42--42--42--42--42--42--|
C||---------------------------|----------------------------------|
C||---------------------------|----------------------------------|
C||------------------38g38----|----------38--------------38------|
C||---------------------------|----------------------------------|
C||--------------35-----------|--35--------------35--------------|


   ^       ^       ^       ^          ^       ^       ^       ^       
   E   E   E   E   E   E   E   E      E   E   E   E   E   E   E   E   
--42--42--42--42--42--42--42--42--|--42--42--42--42--42--42--42--42--|
----------------------------------|----------------------------------|
----------------------------------|----------------------------------|
----------38--------------38------|----------38--------------38------|
----------------------------------|----------------------------------|
--35--------------35----------35--|--35--------------35--------------|


   ^       ^       ^       ^          ^       ^       ^       ^       
   E   E   E   E   E   E   E   E      E   E   E   E   E   E   E   E   
--42--42--42--42--42--42--42--42--|--42--42--42--42--42--42--42--42--|
----------------------------------|----------------------------------|
----------------------------------|----------------------------------|
----------38--------------38------|----------38--------------38------|
----------------------------------|----------------------------------|
--35--------------35----------35--|--35--------------35--------------|


   ^       ^       ^       ^          ^       ^       ^       ^       
   E   E   E   E   E   E   E   E      E   E   E   E   E   E   E   E   
--42--42--42--42--42--42--42--42--|--49--42--42--42--42--42--42--42--|
----------------------------------|----------------------------------|
----------------------------------|----------------------------------|
----------38--------------38------|----------38--------------38------|
----------------------------------|----------------------------------|
--35--------------35----------35--|--35--------------35--------------|


   ^       ^       ^       ^          ^       ^       ^       ^       
   E   E   E   E   E   E   E   E      E   E   E   E   E   E   E   E   
--42--42--42--42--42--42--42--42--|--42--42--42--42--42--42--42--42--|
----------------------------------|----------------------------------|
----------------------------------|----------------------------------|
----------38--------------38------|----------38--------------38------|
----------------------------------|----------------------------------|
--35--------------35----------35--|--35--------------35--------------|


                          ^                      ^       ^       ^       
   E   E   E   E   E      E   E   E      E   E   E   E   E   E   E   E   
---------------------------------49--|---L------42--42--42--42--42--42--|
-------------------------------------|----------------------------------|
-------------------------------------|----------------------------------|
------38--38--38--38--38g38----------|----------38--------------38------|
-------------------------------------|----------------------------------|
--35--35--35--35--35---------35--35--|------35--35------35--------------|


   ^       ^       ^       ^          ^       ^       ^       ^       
   E   E   E   E   E   E   E   E      E   E   E   E   E   E   E   E   
--42--42--42--42--42--42--42--42--|--42--42--42--42--42--42--42--42--|
----------------------------------|----------------------------------|
----------------------------------|----------------------------------|
----------38--------------38------|----------38--------------38------|
----------------------------------|----------------------------------|
--35--------------35----------35--|--35--------------35--------------|


   ^       ^       ^       ^   ^      ^       ^       ^       ^       
   E   E   E   E   E   E   E   E      E   E   E   E   E   E   E   E   
--42--42--42--42--42--42--42--46--|--42--42--42--42--42--42--42--42--|
----------------------------------|----------------------------------|
----------------------------------|----------------------------------|
----------38--------------38------|----------38--------------38------|
----------------------------------|----------------------------------|
--35--------------35----------35--|--35--------------35--------------|


   ^       ^       ^       ^          ^       ^       ^       ^       
   E   E   E   E   E   E   E   E      E   E   E   E   E   E   E   E   
--42--42--42--42--42--42--42--42--|--42--42--42--42--42--42--42--42--|
----------------------------------|----------------------------------|
----------------------------------|----------------------------------|
----------38--------------38------|----------38--------------38------|
----------------------------------|----------------------------------|
--35--------------35----------35--|--35--------------35--------------|


   ^       ^       ^       ^          ^       ^       ^       ^       
   E   E   E   E   E   E   E   E      E   E   E   E   E   E   E   E   
--42--42--42--42--42--42--42--42--|--42--42--42--42--42--42--42--42--|
----------------------------------|----------------------------------|
----------------------------------|----------------------------------|
----------38--------------38------|----------38--------------38------|
----------------------------------|----------------------------------|
--35--------------35----------35--|--35--------------35--------------|


   ^       ^       ^       ^          ^       ^       ^       ^       
   E   E   E   E   E   E   E   E      E   E   E   E   E   E   E   E   
--42--42--42--42--42--42--42--42--|--42--42--42--42--42--42--42--42--|
----------------------------------|----------------------------------|
----------------------------------|----------------------------------|
----------38--------------38------|----------38--------------38------|
----------------------------------|----------------------------------|
--35--------------35----------35--|--35--------------35--------------|


   ^       ^       ^         ^              ^       ^       ^       ^       
   E   E   E   E   E   S  S  S  S  S  S     E   E   E   E   E   E   E   E   
--42--42--42--42--42--------------------|--49--42--42--42--42--42--42--42--|
----------------------------------------|----------------------------------|
----------------------------------------|----------------------------------|
----------38----------38-38-38-38-38-38-|----------38--------------38------|
----------------------------------------|----------------------------------|
--35--------------35--------35----------|--35--------------35--------------|


   ^       ^       ^       ^          ^       ^       ^       ^       
   E   E   E   E   E   E   E   E      E   E   E   E   E   E   E   E   
--42--42--42--42--42--42--42--42--|--42--42--42--42--42--42--42--42--|
----------------------------------|----------------------------------|
----------------------------------|----------------------------------|
----------38--------------38------|----------38--------------38------|
----------------------------------|----------------------------------|
--35--------------35----------35--|--35--------------35--------------|


   ^       ^       ^       ^          ^       ^       ^       ^       
   E   E   E   E   E   E   E   E      E   E   E   E   E   E   E   E   
--42--42--42--42--42--42--42--42--|--49--42--42--42--42--42--42--42--|
----------------------------------|----------------------------------|
----------------------------------|----------------------------------|
----------38--------------38------|----------38--------------38------|
----------------------------------|----------------------------------|
--35--------------35----------35--|--35--------------35--------------|


   ^       ^       ^       ^                                    
   E   E   E   E   E   E   E   E      E   E   Q     Q     Q     
--42--42--42--42--42--42--42--42--|----------------------------|
----------------------------------|----------------------------|
----------------------------------|----------------------------|
----------38--------------38------|--38--38--38----38----38----|
----------------------------------|--43--43--43----43----43----|
--35--------------35----------35--|--35------35----35----35----|


                            ^          ^       ^       ^       ^       
   E   E   Q        E   E   E   E      E   E   E   E   E   E   E   E   
-----------------------------------|--49--51--51--51--51--51--51--51--|
-----------------------------------|----------------------------------|
-----------------------------------|----------------------------------|
--38--38--38----38g38------38------|----------38--------------38------|
--43--43--43-----------------------|----------------------------------|
--35------35-----------35------35--|--35------35------35--35--35------|


   ^       ^       ^       ^          ^       ^       ^       ^       
   E   E   E   E   E   E   E   E      E   E   E   E   E   E   E   E   
--51--51--51--51--51--51--51--51--|--51--51--51--51--51--51--51--51--|
----------------------------------|----------------------------------|
----------------------------------|----------------------------------|
----------38--------------38------|----------38--------------38------|
----------------------------------|----------------------------------|
--35------35------35--35--35------|--35------35------35--35--35------|


   ^       ^       ^       ^          ^       ^       ^       ^       
   E   E   E   E   E   E   E   E      E   E   E   E   E   E   E   E   
--51--51--51--51--51--51--51--51--|--49--51--51--51--51--51--51--51--|
----------------------------------|----------------------------------|
----------------------------------|----------------------------------|
----------38--------------38------|----------38--------------38------|
----------------------------------|----------------------------------|
--35------35------35------35--35--|--35------35------35--35--35------|


   ^       ^       ^       ^          ^       ^       ^       ^       
   E   E   E   E   E   E   E   E      E   E   E   E   E   E   E   E   
--51--51--51--51--51--51--51--51--|--51--51--51--51--51--51--51--51--|
----------------------------------|----------------------------------|
----------------------------------|----------------------------------|
----------38--------------38------|----------38--------------38------|
----------------------------------|----------------------------------|
--35------35------35--35--35------|--35------35------35--35--35------|


   ^       ^       ^                  ^       ^       ^       ^       
   E   E   E   E   E   E   E   E      E   E   E   E   E   E   E   E   
--51--51--51--51--51--------------|--49--51--51--51--51--51--51--51--|
----------------------------------|----------------------------------|
----------------------------------|----------------------------------|
----------38----------38--38--38--|----------38--------------38------|
----------------------------------|----------------------------------|
--35------35------35--35--35--35--|--35------35------35--35--35------|


   ^       ^       ^       ^          ^       ^       ^       ^       
   E   E   E   E   E   E   E   E      E   E   E   E   E   E   E   E   
--51--51--51--51--51--51--51--51--|--51--51--51--51--51--51--51--51--|
----------------------------------|----------------------------------|
----------------------------------|----------------------------------|
----------38--------------38------|----------38--------------38------|
----------------------------------|----------------------------------|
--35------35------35--35--35------|--35------35------35--35--35------|


   ^       ^       ^       ^          ^       ^       ^       ^       
   E   E   E   E   E   E   E   E      E   E   E   E   E   E   E   E   
--51--51--51--51--51--51--51--51--|--49--51--51--51--51--51--51--51--|
----------------------------------|----------------------------------|
----------------------------------|----------------------------------|
----------38--------------38------|----------38--------------38------|
----------------------------------|----------------------------------|
--35------35------35--35--35--35--|--35------35------35--35--35------|


   ^       ^       ^       ^          ^       ^       ^       ^       
   E   E   E   E   E   E   E   E      E   E   E   E   E   E   E   E   
--51--51--51--51--51--51--51--51--|--51--51--51--51--51--51--51--51--|
----------------------------------|----------------------------------|
----------------------------------|----------------------------------|
----------38--------------38------|----------38--------------38------|
----------------------------------|----------------------------------|
--35------35------35--35--35------|--35------35------35--35--35------|


   ^       ^       ^       ^          ^       ^       ^       ^       
   E   E   E   E   E   E   E   E      E   E   E   E   E   E   E   E   
--51--51--51--51--51--51--51--51--|--49--51--51--51--51--51--51--51--|
----------------------------------|----------------------------------|
----------------------------------|----------------------------------|
----------38--------------38------|----------38--------------38------|
----------------------------------|----------------------------------|
--35------35------35--35--35--35--|--35------35------35--35--35------|


   ^       ^       ^       ^          ^       ^       ^       ^       
   E   E   E   E   E   E   E   E      E   E   E   E   E   E   E   E   
--51--51--51--51--51--51--51--51--|--51--51--51--51--51--51--51--51--|
----------------------------------|----------------------------------|
----------------------------------|----------------------------------|
----------38--------------38------|----------38--------------38------|
----------------------------------|----------------------------------|
--35------35------35--35--35------|--35------35------35--35--35------|


   ^          ^          ^                          ^       ^       ^       
   E   E      E   E      E   E   E   E      E   E   E   E   E   E   E   E   
--51--51----------------------------49--|---L------46--46--46--46--46--46--|
----------------------------------------|----------------------------------|
----------------------------------------|----------------------------------|
----------38g38------38g38--------------|----------38--------------38------|
----------------------------------------|----------------------------------|
--35--35---------35---------35--35--35--|------35--35------35--------------|


   ^       ^       ^       ^          ^       ^       ^       ^       
   E   E   E   E   E   E   E   E      E   E   E   E   E   E   E   E   
--46--46--46--46--46--46--46--46--|--46--46--46--46--46--46--46--46--|
----------------------------------|----------------------------------|
----------------------------------|----------------------------------|
----------38--------------38------|----------38--------------38------|
----------------------------------|----------------------------------|
--35--------------35----------35--|--35--------------35--------------|


   ^       ^       ^                  ^       ^       ^       ^       
   E   E   E   E   E   E   E   E      E   E   E   E   E   E   E   E   
--46--46--46--46--46--46--46--46--|--42--42--42--42--42--42--42--42--|
----------------------------------|----------------------------------|
----------------------------------|----------------------------------|
----------38----------38--38--38--|----------38--------------38------|
----------------------------------|----------------------------------|
--35--------------35--35--35--35--|--35--------------35--------------|


   ^       ^       ^       ^          ^       ^       ^       ^       
   E   E   E   E   E   E   E   E      E   E   E   E   E   E   E   E   
--42--42--42--42--42--42--42--42--|--42--42--42--42--42--42--42--42--|
----------------------------------|----------------------------------|
----------------------------------|----------------------------------|
----------38--------------38------|----------38--------------38------|
----------------------------------|----------------------------------|
--35--------------35----------35--|--35--------------35--------------|


   ^       ^       ^       ^          ^       ^       ^       ^       
   E   E   E   E   E   E   E   E      E   E   E   E   E   E   E   E   
--42--42--42--42--42--42--42--42--|--42--42--42--42--42--42--42--42--|
----------------------------------|----------------------------------|
----------------------------------|----------------------------------|
----------38--------------38------|----------38--------------38------|
----------------------------------|----------------------------------|
--35--------------35----------35--|--35--------------35--------------|


   ^       ^       ^       ^          ^       ^       ^       ^       
   E   E   E   E   E   E   E   E      E   E   E   E   E   E   E   E   
--42--42--42--42--42--42--42--42--|--42--42--42--42--42--42--42--42--|
----------------------------------|----------------------------------|
----------------------------------|----------------------------------|
----------38--------------38------|----------38--------------38------|
----------------------------------|----------------------------------|
--35--------------35----------35--|--35--------------35--------------|


   ^       ^       ^         ^              ^       ^       ^       ^       
   E   E   E   E   E   S  S  S  S  S  S     E   E   E   E   E   E   E   E   
--42--42--42--42--42--------------------|--49--42--42--42--42--42--42--42--|
----------------------------------------|----------------------------------|
----------------------------------------|----------------------------------|
----------38----------38-38-38-38-38-38-|----------38--------------38------|
----------------------------------------|----------------------------------|
--35--------------35--------35----------|--35--------------35--------------|


   ^       ^       ^       ^          ^       ^       ^       ^       
   E   E   E   E   E   E   E   E      E   E   E   E   E   E   E   E   
--42--42--42--42--42--42--42--42--|--42--42--42--42--42--42--42--42--|
----------------------------------|----------------------------------|
----------------------------------|----------------------------------|
----------38--------------38------|----------38--------------38------|
----------------------------------|----------------------------------|
--35--------------35----------35--|--35--------------35--------------|


   ^       ^       ^       ^   ^      ^       ^       ^       ^       
   E   E   E   E   E   E   E   E      E   E   E   E   E   E   E   E   
--42--42--42--42--42--42--42--46--|--49--42--42--42--42--42--42--42--|
----------------------------------|----------------------------------|
----------------------------------|----------------------------------|
----------38--------------38------|----------38--------------38------|
----------------------------------|----------------------------------|
--35--------------35----------35--|--35--------------35--------------|


   ^       ^       ^       ^                                    
   E   E   E   E   E   E   E   E      E   E   Q     Q     Q     
--42--42--42--42--42--42--42--42--|----------------------------|
----------------------------------|----------------------------|
----------------------------------|----------------------------|
----------38--------------38------|--41--41--38----43----38----|
----------------------------------|--43--43--41----41----41----|
--35--------------35----------35--|--35------35----35----35----|


                            ^          ^       ^       ^       ^       
   E   E   Q        E   E   E   E      E   E   E   E   E   E   E   E   
-----------------------------------|--49--51--51--51--51--51--51--51--|
-----------------------------------|----------------------------------|
-----------------------------------|----------------------------------|
--41--41--38----38g38------38------|----------38--------------38------|
--43--43--41-----------------------|----------------------------------|
--35------35-----------35------35--|--35------35------35--35--35------|


   ^       ^       ^       ^          ^       ^       ^       ^       
   E   E   E   E   E   E   E   E      E   E   E   E   E   E   E   E   
--51--51--51--51--51--51--51--51--|--51--51--51--51--51--51--51--51--|
----------------------------------|----------------------------------|
----------------------------------|----------------------------------|
----------38--------------38------|----------38--------------38------|
----------------------------------|----------------------------------|
--35------35------35--35--35------|--35------35------35--35--35------|


   ^       ^       ^       ^          ^       ^       ^       ^       
   E   E   E   E   E   E   E   E      E   E   E   E   E   E   E   E   
--51--51--51--51--51--51--51--51--|--49--51--51--51--51--51--51--51--|
----------------------------------|----------------------------------|
----------------------------------|----------------------------------|
----------38--------------38------|----------38--------------38------|
----------------------------------|----------------------------------|
--35------35------35--35--35--35--|--35------35------35--35--35------|


   ^       ^       ^       ^          ^       ^       ^       ^       
   E   E   E   E   E   E   E   E      E   E   E   E   E   E   E   E   
--51--51--51--51--51--51--51--51--|--51--51--51--51--51--51--51--51--|
----------------------------------|----------------------------------|
----------------------------------|----------------------------------|
----------38--------------38------|----------38--------------38------|
----------------------------------|----------------------------------|
--35------35------35--35--35------|--35------35------35--35--35------|


   ^       ^       ^                  ^       ^       ^       ^       
   E   E   E   E   E   E   E   E      E   E   E   E   E   E   E   E   
--51--51--51--51--51--------------|--49--51--51--51--51--51--51--51--|
----------------------------------|----------------------------------|
----------------------------------|----------------------------------|
----------38----------38--38--38--|----------38--------------38------|
----------------------------------|----------------------------------|
--35------35------35--35--35--35--|--35------35------35--35--35------|


   ^       ^       ^       ^          ^       ^       ^       ^       
   E   E   E   E   E   E   E   E      E   E   E   E   E   E   E   E   
--51--51--51--51--51--51--51--51--|--51--51--51--51--51--51--51--51--|
----------------------------------|----------------------------------|
----------------------------------|----------------------------------|
----------38--------------38------|----------38--------------38------|
----------------------------------|----------------------------------|
--35------35------35--35--35------|--35------35------35--35--35------|


   ^       ^       ^       ^          ^       ^       ^       ^       
   E   E   E   E   E   E   E   E      E   E   E   E   E   E   E   E   
--51--51--51--51--51--51--51--51--|--49--51--51--51--51--51--51--51--|
----------------------------------|----------------------------------|
----------------------------------|----------------------------------|
----------38--------------38------|----------38--------------38------|
----------------------------------|----------------------------------|
--35------35------35--35--35--35--|--35------35------35--35--35------|


   ^       ^       ^       ^          ^       ^       ^       ^       
   E   E   E   E   E   E   E   E      E   E   E   E   E   E   E   E   
--51--51--51--51--51--51--51--51--|--51--51--51--51--51--51--51--51--|
----------------------------------|----------------------------------|
----------------------------------|----------------------------------|
----------38--------------38------|----------38--------------38------|
----------------------------------|----------------------------------|
--35------35------35--35--35------|--35------35------35--35--35------|


   ^       ^       ^       ^          ^       ^       ^       ^       
   E   E   E   E   E   E   E   E      E   E   E   E   E   E   E   E   
--51--51--51--51--51--51--51--51--|--49--51--51--51--51--51--51--51--|
----------------------------------|----------------------------------|
----------------------------------|----------------------------------|
----------38--------------38------|----------38--------------38------|
----------------------------------|----------------------------------|
--35------35------35--35--35--35--|--35------35------35--35--35------|


   ^       ^       ^       ^          ^       ^       ^       ^       
   E   E   E   E   E   E   E   E      E   E   E   E   E   E   E   E   
--51--51--51--51--51--51--51--51--|--51--51--51--51--51--51--51--51--|
----------------------------------|----------------------------------|
----------------------------------|----------------------------------|
----------38--------------38------|----------38--------------38------|
----------------------------------|----------------------------------|
--35------35------35--35--35------|--35------35------35--35--35------|


   ^         ^           ^           ^          ^                 
   E   S  S  S  S  S  S  S  S  S  S  E   E      W                 
--51----------------------------------------|--49----------------|
--------------------------------------------|--------------------|
--------------------------------------------|--------------------|
------38-38-38-38-38-38-38-38-38-38-38------|--------------------|
--------------------------------------------|--------------------|
--35--------35----------35----------35--35--|--35----------------|


                                                ^       ^       ^       
  E   E   E   E   E      E   E   E      E   E   E   E   E   E   E   E   
--------------------------------49--|---L------46--46--46--46--46--46--|
------------------------------------|----------------------------------|
------------------------------------|----------------------------------|
-----38--38--38--38--38g38----------|----------38--------------38------|
------------------------------------|----------------------------------|
-----35--35--35--35---------35--35--|------35--35------35------35------|


   ^       ^       ^       ^          ^       ^       ^       ^       
   E   E   E   E   E   E   E   E      E   E   E   E   E   E   E   E   
--46--46--46--46--46--46--46--46--|--49--46--46--46--46--46--46--46--|
----------------------------------|----------------------------------|
----------------------------------|----------------------------------|
----------38--------------38------|----------38----------38--38--38--|
----------------------------------|----------------------------------|
--35------35------35------35--35--|--35------35------35--35--35--35--|


   ^       ^       ^          ^          ^       ^       ^       ^       
   E   E   E   E   E   E      E   E      E   E   E   E   E   E   E   E   
--46--46--46--46---------------------|--49--51--51--51--51--51--51--51--|
-------------------------------------|----------------------------------|
-------------------------------------|----------------------------------|
--38--38--38--38--38------38g38------|----------38--------------38------|
-------------------------------------|----------------------------------|
--35--35--35--35--35--35-----35--35--|--35------35------35--35--35------|


   ^       ^       ^       ^          ^       ^       ^       ^       
   E   E   E   E   E   E   E   E      E   E   E   E   E   E   E   E   
--51--51--51--51--51--51--51--51--|--51--51--51--51--51--51--51--51--|
----------------------------------|----------------------------------|
----------------------------------|----------------------------------|
----------38--------------38------|----------38--------------38------|
----------------------------------|----------------------------------|
--35------35------35--35--35------|--35------35------35--35--35------|


   ^       ^       ^       ^          ^       ^       ^       ^       
   E   E   E   E   E   E   E   E      E   E   E   E   E   E   E   E   
--51--51--51--51--51--51--51--51--|--49--51--51--51--51--51--51--51--|
----------------------------------|----------------------------------|
----------------------------------|----------------------------------|
----------38--------------38------|----------38--------------38------|
----------------------------------|----------------------------------|
--35------35------35--35--35--35--|--35------35------35--35--35------|


   ^       ^       ^       ^          ^       ^       ^       ^       
   E   E   E   E   E   E   E   E      E   E   E   E   E   E   E   E   
--51--51--51--51--51--51--51--51--|--49--51--51--51--51--51--51--51--|
----------------------------------|----------------------------------|
----------------------------------|----------------------------------|
----------38--------------38------|----------38----------38--38--38--|
----------------------------------|----------------------------------|
--35------35------35--35--35------|--35------35------35--35--35--35--|


   ^       ^       ^       ^                                  
   E   E   E   E   E   E   E   E      Q.      E   Q.      E   
--51--51--51--51--51--51--51--51--|--49----------------------|
----------------------------------|--------------------------|
----------------------------------|--------------------------|
--38--38--38--38--38--38--38--38--|--------------------------|
----------------------------------|--------------------------|
--35--35--35--35--35--35--35--35--|--35------35--35------35--|


                        ^                                
   Q.      E   Q        Q        Q.      E   Q.      E   
-----------------------------|--------------------------|
-----------------------------|--------------------------|
-----------------------------|--------------------------|
--------------------38g38----|--------------------------|
-----------------------------|--------------------------|
--35------35--35-------------|--35------35--35------35--|


                          ^                ^             ^       
   Q.      E   E   E      E   E      Q     E   E   Q     E   E   
---------------------------------|------------------------------|
---------------------------------|------------------------------|
---------------------------------|------------------------------|
----------------------38g38------|--------38------------38------|
---------------------------------|------------------------------|
--35------35--35--35---------35--|--35--------35--35--------35--|


         ^             ^                ^             ^       
   Q     E   E   Q     E   E      Q     E   E   Q     E   E   
------------------------------|------------------------------|
------------------------------|------------------------------|
------------------------------|------------------------------|
--------38------------38------|--------38------------38------|
------------------------------|------------------------------|
--35--------35--35--------35--|--35--------35--35--------35--|


         ^             ^          ^       ^       ^       ^       
   Q     E   E   Q     E   E      E   E   E   E   E   E   E   E   
------------------------------|--49--42--42--42--42--42--42--42--|
------------------------------|----------------------------------|
------------------------------|----------------------------------|
--------38------------38------|----------38--------------38------|
------------------------------|----------------------------------|
--35--------35--35--------35--|--35----------35--35----------35--|


   ^       ^       ^       ^          ^       ^       ^       ^       
   E   E   E   E   E   E   E   E      E   E   E   E   E   E   E   E   
--42--42--42--42--42--42--42--42--|--42--42--42--42--42--42--42--42--|
----------------------------------|----------------------------------|
----------------------------------|----------------------------------|
----------38--------------38------|----------38--------------38------|
----------------------------------|----------------------------------|
--35----------35--35----------35--|--35----------35--35----------35--|


   ^       ^       ^       ^          ^       ^       ^       ^       
   E   E   E   E   E   E   E   E      E   E   E   E   E   E   E   E   
--42--42--42--42--42--42--42--42--|--49--42--42--42--42--42--42--42--|
----------------------------------|----------------------------------|
----------------------------------|----------------------------------|
----------38--------------38------|----------38--------------38------|
----------------------------------|----------------------------------|
--35----------35--35----------35--|--35----------35--35----------35--|


   ^       ^       ^       ^          ^       ^       ^       ^       
   E   E   E   E   E   E   E   E      E   E   E   E   E   E   E   E   
--42--42--42--42--42--42--42--42--|--42--42--42--42--42--42--42--42--|
----------------------------------|----------------------------------|
----------------------------------|----------------------------------|
----------38--------------38------|----------38----------38--38--38--|
----------------------------------|----------------------------------|
--35----------35--35----------35--|--35----------35--35--35--35--35--|


                      ^          ^          ^       ^       ^       ^       
   E   E   E   E      E   E      E   E      E   E   E   E   E   E   E   E   
--42--42--42--42------------------------|--49--51--51--51--51--51--51--51--|
----------------------------------------|----------------------------------|
----------------------------------------|----------------------------------|
--38--38--38--38--38g38------38g38------|----------38--------------38------|
----------------------------------------|----------------------------------|
--35--35--35--35---------35---------35--|--35------35------35--35--35------|


   ^       ^       ^       ^          ^       ^       ^       ^       
   E   E   E   E   E   E   E   E      E   E   E   E   E   E   E   E   
--51--51--51--51--51--51--51--51--|--51--51--51--51--51--51--51--51--|
----------------------------------|----------------------------------|
----------------------------------|----------------------------------|
----------38--------------38------|----------38--------------38------|
----------------------------------|----------------------------------|
--35------35------35--35--35------|--35------35------35--35--35------|


   ^       ^       ^       ^          ^       ^       ^       ^       
   E   E   E   E   E   E   E   E      E   E   E   E   E   E   E   E   
--51--51--51--51--51--51--51--51--|--49--51--51--51--51--51--51--51--|
----------------------------------|----------------------------------|
----------------------------------|----------------------------------|
----------38--------------38------|----------38--------------38------|
----------------------------------|----------------------------------|
--35------35------35--35--35--35--|--35------35------35--35--35------|


   ^       ^       ^       ^          ^       ^                       
   E   E   E   E   E   E   E   E      E   E   E   E   E   E   E   E   
--51--51--51--51--51--51--51--51--|--51--51--51--51--51--------------|
----------------------------------|----------------------------------|
----------------------------------|----------------------------------|
----------38--------------38------|----------38----------38--38--38--|
----------------------------------|----------------------------------|
--35------35------35--35--35------|--35------35------35--35--35--35--|


           ^           ^           ^          ^       ^       ^       ^       
   E   E   S  S  S  S  S  S  S  S  E   E      E   E   E   E   E   E   E   E   
------------------------------------------|--49--51--51--51--51--51--51--51--|
------------------------------------------|----------------------------------|
------------------------------------------|----------------------------------|
--38--38--38-38-38-38-38-38-38-38-38------|----------38--------------38------|
------------------------------------------|----------------------------------|
--35--35--35----35----35----35----35--35--|--35------35------35------35--35--|


   ^       ^       ^       ^          ^       ^       ^       ^       
   E   E   E   E   E   E   E   E      E   E   E   E   E   E   E   E   
--51--51--51--51--51--51--51--51--|--49--51--51--51--51--51--51--51--|
----------------------------------|----------------------------------|
----------------------------------|----------------------------------|
----------38--------------38------|----------38--------------38------|
----------------------------------|----------------------------------|
--35------35------35------35--35--|--35------35------35------35--35--|


   ^       ^       ^       ^          ^       ^       ^       ^       
   E   E   E   E   E   E   E   E      E   E   E   E   E   E   E   E   
--51--51--51--51--51--51--51--51--|--49--51--51--51--51--51--51--51--|
----------------------------------|----------------------------------|
----------------------------------|----------------------------------|
----------38--------------38------|----------38--------------38------|
----------------------------------|----------------------------------|
--35------35------35------35--35--|--35------35------35------35------|


   ^         ^           ^       ^        ^                 
   E   S  S  S  S  S  S  E   E   Q        W                 
--51----------------------------------|--49----------------|
--------------------------------------|--------------------|
--------------------------------------|--------------------|
------38-38-38-38-38-38-38------38----|--------------------|
--------------------------------------|--------------------|
--35--------35----------35--35--------|--35----------------|


                                     ^   ^                 
  E   E   E   E   E   E   E   E      E   E  H.             
---------------------------------|--49--49---------------||
---------------------------------|-----------------------||
---------------------------------|-----------------------||
-----38--38--38--38--38--38--38--|-----------------------||
---------------------------------|-----------------------||
-----35--35--35--35--35--35--35--|--35--35---------------||
Добавлено: 06.11.2013
Другие материалы по этой песне:

Страница создана 10.07.2012
http://primanota.ru/autograph/dance-all-night-chords.htm
Привет, Гость.
Предлагаем пройти революционный курс по гитаре.
Подарок от PrimaNota.Ru, забирай!