PrimaNota.ru - самый крупный в мире бесплатный архив песенных текстов, аккордов, табулатур и нот


Authority Zero - Talk Is Cheap - текст песни, таба, видео

Регистрация Запомнить меня
Войти через:  Facebook Google Twitter Vk Yandex Mail.ru

Authority Zero - Talk Is Cheap - текст песни, таба, видео

Печатать
Просмотров: 176
-------------------------------------------------------------------------------
                   Talk Is Cheap(intro)- Authority Zero
-------------------------------------------------------------------------------
Tabbed by: johnnythrasher5
Email: metalhead999@insightbb.com

Tuning: standard

this is all i got and no matter how long 
i try i cannot figure out the rest but im 
sure this is correct

e|---------------------------|
B|---------------------------|
G|---------------------------|
D|-------3~--3/5-5-3/5-------|
A|---5h7----------------5-5--|
E|---------------------------|


e|---------------------------|
B|---------------------------|
G|---------------------------|
D|-5-5-5-5-5h7p5-------------|
A|---------------7-7-7-7\5---|
E|---------------------------|


e|---------------------------|
B|---------------------------|
G|---------------------------|
D|---------------------------|
A|-5-5-5-5-5-5-5-5-5\--------|
E|---------------------------|

************************************

| /   slide up
| \   slide down
| h   hammer-on
| p   pull-off
| ~   vibrato
| +   harmonic
| x   Mute note
| b   Bend
| pb  Pre-bend
| br  Bend release
| pbr Pre-bend release
| brb Bend release bend

************************************
Добавлено: 05.07.2012
Другие материалы по этой песне:
  • Аккорды и текст

Страница создана 29.03.2012
http://primanota.ru/authority-zero/talk-is-cheap-chords.htm
Привет, Гость.
Предлагаем пройти революционный курс по гитаре.
Подарок от PrimaNota.Ru, забирай!