PrimaNota.ru - самый крупный в мире бесплатный архив песенных текстов, аккордов, табулатур и нот


Authority Zero - Solitude - бас-таба, перевод, видео

Регистрация Запомнить меня
Войти через:  Facebook Google Twitter Vk Yandex Mail.ru

Authority Zero - Solitude - бас-таба, перевод, видео

Печатать
Просмотров: 159
Authority Zero - Solitude Bass tab
Standard tuning

Intro/ main riff
|---------------------------------------------------------------------|
|------5-5-5h7p5-------5-5-5h7p5-------5-5-5h7p5----0-1-0-1-0-1-0-1---|
|--5-------------5-6-------------6-5-------------5--------------------|
|---------------------------------------------------------------------|

Chorus
|-----------------------------------------------10-8-7-----------|
|------------------------------------------------------9-8-7-8---|
|-0--0-0-0--0--7-7-7-7-7--7--0-x-8-x-7-x-5----0------------------|
|----------------------------------------------------------------|

Solo
|-----------------------------------|
|----5-5-5-5--------7-7-7-7---------|
|-5----------5-5-6----------5-5-5---|
|-----------------------------------|

that's it!! 
Добавлено: 19.05.2012
Другие материалы по этой песне:

Страница создана 19.05.2012
http://primanota.ru/authority-zero/solitude-chords.htm
Привет, Гость.
Предлагаем пройти революционный курс по гитаре.
Подарок от PrimaNota.Ru, забирай!