PrimaNota.ru - самый крупный в мире бесплатный архив песенных текстов, аккордов, табулатур и нот


Authority Zero - Papa - таба, видео

Регистрация Запомнить меня
Войти через:  Facebook Google Twitter Vk Yandex Mail.ru

Authority Zero - Papa - таба, видео

Печатать
Просмотров: 37
-------------------------------------------------------------------------------
                             Papa - Authority Zero
-------------------------------------------------------------------------------
Tabbed by: AxllowFifty
E-mail: axllow@hotmail.fr

Tuning: eBGDAD (drop D)

e|--7--7--5--7--10--8--7----------------------8-------7------5-------3-------|
B|------------------------7-------7-------------8-------7------5-------------|
G|---------------0----------7--0------------------9-------8------6-----------|
D|------------------------0----------------------------------7---7---0-------|       x2
A|--------------------------------------------10--10--9---9------------------|      (second time twin guitars)
D|-----5--------------------------5------------------------------------------|

e|-8-------7------5-----------3----------------------------------------------|
B|---8-------7------5--------------------------------------------------------|
G|-----9-------8------6------------------------------------------------------|
D|----------------7---7-------0----------------------------------------------|
A|-10--10--9---9-------------------------------------------------------------|
D|---------------------------------------------------------------------------|
Добавлено: 23.11.2015
Другие материалы по этой песне:
  • Аккорды и текст

Страница создана 23.11.2015
http://primanota.ru/authority-zero/papa-chords.htm
Привет, Гость.
Предлагаем пройти революционный курс по гитаре.
Подарок от PrimaNota.Ru, забирай!