PrimaNota.ru - самый крупный в мире бесплатный архив песенных текстов, аккордов, табулатур и нот


Authority Zero - On Edge - текст песни, таба, видео

Регистрация Запомнить меня
Войти через:  Facebook Google Twitter Vk Yandex Mail.ru

Authority Zero - On Edge - текст песни, таба, видео

Печатать
Просмотров: 147
|==================|
|                  |
|     On Edge      |
|  Authority Zero  |
|                  |
|==================|

++Check out my tabs of 12:34 (Version 1) and Everyday (Version 2)
also by AZ!++

Incredibly easy song, to play and to tab, but nonetheless one of Authority
Zero's greatest! :D

Please rate and comment!

Enjoy!

====
Standard Tuning
One Guitar

PM = palm mute
~  = vibrato
====

Intro
e|------------------------------------------------------------------|
B|------------------------------------------------------------------|
G|------------------------------------------------------------------|
D|--7-7-5-5-5-5-5-4-4-4-4-------------------------------------------|
A|------------------------7-7-7---7-7-7-5---------------------------|
E|----------------------------------------8-8-8---8-8-8-8-10-10-10--|

e|---------------------------------------------------------------------|
B|---------------------------------------------------------------------|
G|---------------------------------------------------------------------|
D|--7-7-5-5-5-5-5-4-4-4-4----------------------------------------------|
A|------------------------7-7-7---7-7-7-5----------------5-5-5--5-5-5--|
E|----------------------------------------8-8-8---8-8-8----------------|

====

Verse "You think I've gone too far this time..."
Part 1 x3
e|--------------------------------------------------------------------|
B|--------------------------------------------------------------------|
G|--7-----------------------------------------------------------------|
D|--7-------------------------------10---------------5----------------|
A|--5-5-5-5-5-5-5-5-5-5-5-5-5-5-5-5-10---------------5----------------|
E|----------------------------------8--8-8-8-8-8-8-8-3-3-3-3-3-3-3-3--|
PM    . . . . . . . . . . . . . . .    . . . . . . .   . . . . . . .

Part 2
e|--------------------------------------------------------------------|
B|--------------------------------------------------------------------|
G|--7-----------------------------------------------------------------|
D|--7-------------------------------10---------------5-5-5-5-5-5-5-5--|
A|--5-5-5-5-5-5-5-5-5-5-5-5-5-5-5-5-10---------------5-5-5-5-5-5-5-5--|
E|----------------------------------8--8-8-8-8-8-8-8-3-3-3-3-3-3-3-3--|
PM    . . . . . . . . . . . . . . .    . . . . . . .

==

Chorus "I'm on the edge again..."
e|------------------------------------------------------------------|
B|------------------------------------------------------------------|
G|------------------------------------------------------------------|
D|--7-7-5-5-5-5-5-4-4-4-4-------------------------------------------|
A|------------------------7-7-7---7-7-7-5---------------------------|
E|----------------------------------------8-8-8---8-8-8-8-10-10-10--|

e|---------------------------------------------------------------------|
B|---------------------------------------------------------------------|
G|---------------------------------------------------------------------|
D|--7-7-5-5-5-5-5-4-4-4-4----------------------------------------------|
A|------------------------7-7-7---7-7-7-5----------------5-5-5--5-5-5--|
E|----------------------------------------8-8-8---8-8-8----------------|

==

Play Verse again

Play Chorus again

==

Bridge "We're taking a step back..."
Part 1 x3
e|---------------------------------------------------------------|
B|---------------------------------------------------------------|
G|---------------------------------7-7-7-7--5-5-5-7-7-7-7-5-5-5--|
D|-3-3-3-3-3-3-3-3-5-5-5-5-5-5-5-5-7-7-7-7--5-5-5-7-7-7-7-5-5-5--|
A|-3-3-3-3-3-3-3-3-5-5-5-5-5-5-5-5-5-5-5-5--3-3-3-5-5-5-5-3-3-3--|
E|-1-1-1-1-1-1-1-1-3-3-3-3-3-3-3-3-------------------------------|

Part 2
e|------------------------------------|
B|------------------------------------|
G|---------------------------------7--|
D|-3-3-3-3-3-3-3-3-5-5-5-5-5-5-5-5-7--|
A|-3-3-3-3-3-3-3-3-5-5-5-5-5-5-5-5-5--|
E|-1-1-1-1-1-1-1-1-3-3-3-3-3-3-3-3----|

==

Verse 3 "Now what we have here is..."
Part 1 x3
e|-------------------------------|
B|-------------------------------|
G|--7~------------5~-------------|
D|--7~-----7~-----5~------5~-----|
A|--5~-----7~-----3~------5~-----|
E|---------5~-------------3~-----|

Part 2
e|-------------------------------------------------|
B|-------------------------------------------------|
G|--7~------------5-5-5-5-5-5-5-5-5-5-5-5-5-5-5-5--|
D|--7~-----7~-----5-5-5-5-5-5-5-5-5-5-5-5-5-5-5-5--|
A|--5~-----7~-----3-3-3-3-3-3-3-3-3-3-3-3-3-3-3-3--|
E|---------5~--------------------------------------|

*Note: If anyone knows the lyrics to this part of the song,
could you please email me on verysleepyninja@gmail.com (also,
for non-members who can't be bothered to make a UG account,
feel free to email your comments to me) :D*

==

Play Chorus twice

==

End on
e|--------|
B|--------|
G|--7-----|
D|--7-----|
A|--5-----|
E|--------|

Hope that helped!
Don't forget to rate and comment! :)
Добавлено: 02.05.2012
Другие материалы по этой песне:

Страница создана 29.04.2012
http://primanota.ru/authority-zero/on-edge-chords.htm
Привет, Гость.
Предлагаем пройти революционный курс по гитаре.
Подарок от PrimaNota.Ru, забирай!