PrimaNota.ru - самый крупный в мире бесплатный архив песенных текстов, аккордов, табулатур и нот


Authority Zero - No Regrets - текст песни, таба, бас-таба, видео

Регистрация Запомнить меня
Войти через:  Facebook Google Twitter Vk Yandex Mail.ru

Authority Zero - No Regrets - текст песни, таба, бас-таба, видео

Печатать
Просмотров: 212
Song: No Regrets
Band: Authority Zero
Album: 12:34
Tabbed By: Punker 96

Standard Tuning: E A D G B e

Authority Zero is one kickass band that I believe deserves more recognition
than they recieve. This is one of my many favourites from Authority Zero,
and realizing there was no tab for it yet, I couldn't resist. Enjoy!


Intro

e|--------4444444444444444-----------|
B|-----------------------------------|
G|-4~---------------------------888/-|
D|-4~-----------------------55--888/-|
A|-2~-----------------------55--666/-|
E|--------------------------330------|
          ****************


e|--------4444444444444444----------|
B|----------------------------------|
G|-4~---------------------------88--|
D|-4~-----------------------55--88--|
A|-2~-----------------------55--660-|
E|--------------------------330-----|
          ****************


Verse 1

e|--------------------------------------------------------|
B|--------------------------------------------------------|
G|-4---------------4---------------4------------------88--|
D|-4---------------4---------------4--------------55--88--|
A|-2-222222222222-02-222222222222-02-222222222222-55--660-|
E|------------------------------------------------330-----|
     ............    ............    ............


e|--------------------------------------------------------|
B|--------------------------------------------------------|
G|-4---------------4---------------4------------------88--|
D|-4---------------4---------------4--------------55--88--|
A|-2-222222222222-02-222222222222-02-222222222222-55--660-|
E|------------------------------------------------330-----|
     ............    ............    ............


Chorus

e|------------------------------------------------------|
B|------------------------------------------------------|
G|--------------777777777777----------------------------|
D|-555555555555-777777777777-777777777777-99999999-9-99-|
A|-555555555555-555555555555-777777777777-99999999-9-99-|
E|-333333333333--------------555555555555-77777777-7-77-|



e|----------------------------------------------------|
B|----------------------------------------------------|
G|--------------777777777777--------------------------|
D|-555555555555-777777777777-777777777777-99999999999-|
A|-555555555555-555555555555-777777777777-99999999999-|
E|-333333333333--------------555555555555-77777777777-|



Verse 2

e|--------------------------------------------------------|
B|--------------------------------------------------------|
G|-4---------------4---------------4------------------88--|
D|-4---------------4---------------4--------------55--88--|
A|-2-222222222222-02-222222222222-02-222222222222-55--660-|
E|------------------------------------------------330-----|
     ............    ............    ............


e|--------------------------------------------------------|
B|--------------------------------------------------------|
G|-4---------------4---------------4------------------88--|
D|-4---------------4---------------4--------------55--88--|
A|-2-222222222222-02-222222222222-02-222222222222-55--660-|
E|------------------------------------------------330-----|
     ............    ............    ............


e|--------------------------------------------------------|
B|--------------------------------------------------------|
G|-4---------------4---------------4------------------88--|
D|-4---------------4---------------4--------------55--88--|
A|-2-222222222222-02-222222222222-02-222222222222-55--660-|
E|------------------------------------------------330-----|
     ............    ............    ............


Chorus

e|------------------------------------------------------|
B|------------------------------------------------------|
G|--------------777777777777----------------------------|
D|-555555555555-777777777777-777777777777-99999999-9-99-|
A|-555555555555-555555555555-777777777777-99999999-9-99-|
E|-333333333333--------------555555555555-77777777-7-77-|



e|----------------------------------------------------|
B|----------------------------------------------------|
G|--------------777777777777--------------------------|
D|-555555555555-777777777777-777777777777-99999999999-|
A|-555555555555-555555555555-777777777777-99999999999-|
E|-333333333333--------------555555555555-77777777777-|



e|------------------------------------------------------|
B|------------------------------------------------------|
G|--------------777777777777----------------------------|
D|-555555555555-777777777777-777777777777-99999999-9-99-|
A|-555555555555-555555555555-777777777777-99999999-9-99-|
E|-333333333333--------------555555555555-77777777-7-77-|



e|----------------------------------------------------|
B|----------------------------------------------------|
G|--------------777777777777--------------------------|
D|-555555555555-777777777777-777777777777-99999999999-|
A|-555555555555-555555555555-777777777777-99999999999-|
E|-333333333333--------------555555555555-77777777777-|



Bridge

e|-------------------------------------------------------|
B|-------------------------------------------------------|
G|-------------------------------------------------------|
D|-------------------------------------------------------|
A|------------77-999-777------777------------------------|
E|-777-101010------------1010-----101010-777777777777777-|



e|-----------------------------------------|
B|-----------------------------------------|
G|-----------------------------------------|
D|-----------------------------------------|
A|------------77-999-777-9\121212-999/7h9b-|
E|-777-101010------------------------------|



e|----------------------------|
B|----------------------------|
G|----------------------------|
D|-7\9/7----------------------|
A|-------9-7---------7--------|
E|-----------10-7-10----10-7v-|



e|-------------------------------------|
B|-------------------------------------|
G|-------------------------------------|
D|-------------------------------------|
A|---------7------b7777777777777777r-9-|
E|-/7-10-7---10-7--------------------7-|



Chorus

e|------------------------------------------------------|
B|------------------------------------------------------|
G|------------------------------------------------------|
D|---------------------------777777777777-99999999-9-99-|
A|---------------------------777777777777-99999999-9-99-|
E|---------------------------555555555555-77777777-7-77-|



e|----------------------------------------------------|
B|----------------------------------------------------|
G|--------------777777777777--------------------------|
D|-555555555555-777777777777-777777777777-99999999999-|
A|-555555555555-555555555555-777777777777-99999999999-|
E|-333333333333--------------555555555555-77777777777-|



e|------------------------------------------------------|
B|------------------------------------------------------|
G|--------------777777777777----------------------------|
D|-555555555555-777777777777-777777777777-99999999-9-99-|
A|-555555555555-555555555555-777777777777-99999999-9-99-|
E|-333333333333--------------555555555555-77777777-7-77-|



e|----------------------------------------------------|
B|----------------------------------------------------|
G|--------------777777777777--------------------------|
D|-555555555555-777777777777-777777777777-99999999999-|
A|-555555555555-555555555555-777777777777-99999999999-|
E|-333333333333--------------555555555555-77777777777-|



Outro

e|--------------------------------------------------|
B|--------------------------------------------------|
G|--------------------------------------------------|
D|--------------------------------------------------|
A|-222222222222222222222222222222222222222222222222-|
E|--------------------------------------------------|
   ................................................


e|----------|
B|----------|
G|-----888/-|
D|-55--888/-|
A|-55--666/-|
E|-330------|




Tab Legend:

~   = Ring Out

*** = Natural Harmonics

... = Palm Mute

\   = Slide Up

/   = Slide Down

b   = Bend

r   = Return

v   = Vibrato



Добавлено: 18.03.2012
Другие материалы по этой песне:
  • Аккорды и текст

Страница создана 18.03.2012
http://primanota.ru/authority-zero/no-regrets-chords.htm
Привет, Гость.
Предлагаем пройти революционный курс по гитаре.
Подарок от PrimaNota.Ru, забирай!