PrimaNota.ru - самый крупный в мире бесплатный архив песенных текстов, аккордов, табулатур и нот


Authority Zero - Drunken Sailor - текст песни, таба, видео

Регистрация Запомнить меня
Войти через:  Facebook Google Twitter Vk Yandex Mail.ru

Authority Zero - Drunken Sailor - текст песни, таба, видео

Печатать
Просмотров: 194
Уроки эстрадного вокала в Санкт-Петербурге
Song: Drunken Sailor
Band: Authority Zero
Album: 12:34
Tabbed By: Punker 96

Standard Tuning: E A D G B e

Just an awesome cover song by Authority Zero. They sure do know how to pick em! Enjoy it!


Intro

e|-------------------|
B|-------------------|
G|-7~--5~--5~--5~----|
D|-7~--5~--5~--5~-5~-|
A|-5~--3~--7~--3~-5~-|
E|----------------3~-|

e|-----------------------------|
B|-----------------------------|
G|-7~--5~--7~--5-55555---------|
D|-7~--5~--7~--5-55555-5-55555-|
A|-5~--3~--5~--3-33333-5-55555-|
E|---------------------3-33333-|


Verse

e|------------------------------------------------|
B|------------------------------------------------|
G|-7-777-777-7-77--5-555-555-5-55--7-777-777-7-77-|
D|-5-555-555-5-55--3-333-333-3-33--5-555-555-5-55-|
A|-5-555-555-5-55--3-333-333-3-33--5-555-555-5-55-|
E|------------------------------------------------|

e|-----------------|
B|-----------------|
G|-5-55555---------|
D|-5-55555-5-55555-|
A|-3-33333-5-55555-|
E|---------3-33333-|


Chorus

e|----------------------------|
B|----------------------------|
G|-7-7-xxxx-5-5-xxxx-7-7-xxxx-|
D|-7-7-xxxx-5-5-xxxx-7-7-xxxx-|
A|-5-5-xxxx-3-3-xxxx-5-5-xxxx-|
E|----------------------------|

e|-----------|
B|-----------|
G|-5555------|
D|-5555-5555-|
A|-3333-5555-|
E|------3333-|


Verse

e|------------------------------------------------|
B|------------------------------------------------|
G|-7-777-777-7-77--5-555-555-5-55--7-777-777-7-77-|
D|-5-555-555-5-55--3-333-333-3-33--5-555-555-5-55-|
A|-5-555-555-5-55--3-333-333-3-33--5-555-555-5-55-|
E|------------------------------------------------|

e|-----------------|
B|-----------------|
G|-5-55555---------|
D|-5-55555-5-55555-|
A|-3-33333-5-55555-|
E|---------3-33333-|


Chorus

e|----------------------------|
B|----------------------------|
G|-7-7-xxxx-5-5-xxxx-7-7-xxxx-|
D|-7-7-xxxx-5-5-xxxx-7-7-xxxx-|
A|-5-5-xxxx-3-3-xxxx-5-5-xxxx-|
E|----------------------------|

e|-----------||----------|
B|-----------||----------|
G|-5555------||-77777777-|
D|-5555-5555-||-77777777-|
A|-3333-5555-||----------|
E|------3333-||----------|

>Harmonics      ********
               2nd Guitar


Bridge

e|-------------------------------------------------------------|
B|-------------------------------------------------------------|
G|------------------------------------------------7-5----------|
D|-7-777-777-777-7-5-555-555-555-5-7-777-777\9-10-----7-5------|
A|--------------------------------------------------------7-55-|
E|-------------------------------------------------------------|

e|----------------------|
B|----------------------|
G|-7~-5~-5/----7~-5~-5/-|
D|-7~-5~-5/----7~-5~-5/-|
A|-5~-3~-7/----5~-3~-7/-|
E|----------------------|

e|--------------------------------------------------|
B|--------------------------------------------------|
G|-7-777-7-7--5-555-5-5--7-777-7-7--5-555-5---------|
D|-7-777-7-7--5-555-5-5--7-777-7-7--5-555-3-5-555-5-|
A|-5-555-5-5--3-333-3-3--5-555-5-5--3-333-3-5-555-5-|
E|------------------------------------------3-333-3-|

>PM. ... . .  . ... . .  . ... . .  . ... . . ... .


Chorus

e|----------------------------|
B|----------------------------|
G|-7-7-xxxx-5-5-xxxx-7-7-xxxx-|
D|-7-7-xxxx-5-5-xxxx-7-7-xxxx-|
A|-5-5-xxxx-3-3-xxxx-5-5-xxxx-|
E|----------------------------|

e|-----------|
B|-----------|
G|-5555------|
D|-5555-5555-|
A|-3333-5555-|
E|------3333-|


Verse

e|------------------------------------------------|
B|------------------------------------------------|
G|-7-777-777-7-77--5-555-555-5-55--7-777-777-7-77-|
D|-5-555-555-5-55--3-333-333-3-33--5-555-555-5-55-|
A|-5-555-555-5-55--3-333-333-3-33--5-555-555-5-55-|
E|------------------------------------------------|

e|-----------------|
B|-----------------|
G|-5-55555---------|
D|-5-55555-5-55555-|
A|-3-33333-5-55555-|
E|---------3-33333-|


Chorus

e|----------------------------|
B|----------------------------|
G|-7-7-xxxx-5-5-xxxx-7-7-xxxx-|
D|-7-7-xxxx-5-5-xxxx-7-7-xxxx-|
A|-5-5-xxxx-3-3-xxxx-5-5-xxxx-|
E|----------------------------|

e|-----------|
B|-----------|
G|-5555------|
D|-5555-5555-|
A|-3333-5555-|
E|------3333-|


Outro

e|--------------|
B|--------------|
G|-5-5-5-5------|
D|-5-5-5-5--5-5-|
A|-3-3-3-3--5-5-|
E|----------3-3-|




Tab Legend:

~   = Ring Out

*** = Natural Harmonics

... = Palm Mute

\   = Slide Up

/   = Slide Down
Добавлено: 11.07.2012
Другие материалы по этой песне:
  • Аккорды и текст

Страница создана 05.07.2012
http://primanota.ru/authority-zero/drunken-sailor-chords.htm
Привет, Гость.
Предлагаем пройти революционный курс по гитаре.
Подарок от PrimaNota.Ru, забирай!