PrimaNota.ru - самый крупный в мире бесплатный архив песенных текстов, аккордов, табулатур и нот


Authority Zero - Broken Dreams - текст песни, таба, видео

Регистрация Запомнить меня
Войти через:  Facebook Google Twitter Vk Yandex Mail.ru

Authority Zero - Broken Dreams - текст песни, таба, видео

Печатать
Просмотров: 141
BROKEN DREAMS - Authority Zero

Check out my Guitar Pro Version and my other AZ tabs. Enjoy!


e|----------------------------------------------------------|
B|----------------------------------------------------------|
G|----------------------------------------------------------|
D|----------------------------------------------------------|
A|-----2-------3-------5-------7-------5------3-------3-2-3-|
E|-0-0-0---0-0-1---0-0-3---0-0-5---0-0-3--0-0-1---0-0-1-0-1-|



e|-----------------------------------------------------|
B|-----------------------------------------------------|
G|-----------------------------------------------------|
D|-777777777777---------------------------555555555555-|
A|-555555555555-777777777777-333333333333-333333333333-|
E|--------------555555555555-111111111111--------------|



e|---------------------------------------------------|
B|---------------------------------------------------|
G|---------------------------------------------------|
D|---------------------------------------------------|
A|-----2-----3-----3-2-3------2------2------2------2-|
E|-0-0-0-0-0-1-0-0-1-0-1--0-0-0--0-0-0--0-0-0--0-0-0-|


e|-----------------------------|   |-------------------------------|
B|---------------------------5-|   |-------------------------------|
G|------4-----------------4--4-|   |-------------------------------|
D|---6--2----6----7----6--2----|   |---6-7---6-7-6-----6-9-7-6-7-6-|
A|-7-------7----7----7---------|   |---------------7---------------|
E|-----------------------------|   |-0-----0---------0-------------|


e|--------------------------------------------|  |---------------|
B|---9-10-12--------------9-10-12-------------|  |---------------|
G|-----------9-13-14-13-9---------14-13-14-13-|  |---------------|
D|--------------------------------------------|  |---------------|
A|--------------------------------------------|  |-3332----------|
E|-0------------------------------------------|  |-1110----------|
Добавлено: 16.05.2012
Другие материалы по этой песне:

Страница создана 29.02.2012
http://primanota.ru/authority-zero/broken-dreams-chords.htm
Привет, Гость.
Предлагаем пройти революционный курс по гитаре.
Подарок от PrimaNota.Ru, забирай!