PrimaNota.ru - самый крупный в мире бесплатный архив песенных текстов, аккордов, табулатур и нот


Authority Zero - Brick In The Wave - таба, видео

Регистрация Запомнить меня
Войти через:  Facebook Google Twitter Vk Yandex Mail.ru

Authority Zero - Brick In The Wave - таба, видео

Печатать
Просмотров: 126
Уроки эстрадного вокала в Санкт-Петербурге
Brick in the Wave by Authority Zero
      
e|---------------------------------------------| |---------|
B|---------------------------------------------| |---------|
G|-8-8--8--------------------------------------| |-4--6--4-|
D|-8-8--8---9--9--9----6-6--6--6--6---6-6-6-6--| |-4--6--4-|
A|-6-6--6---9--9--9----6-6--6--6--6---6-6-6-6--| |-2--4--2-|
E|----------7-—7--7----4-4--4--4--4---4-4-4-4--| |---------|

 (play this fill also between the verse and chorus) 
e|-------------------------------------------|
B|-------------------------------------------|
G|-4--4-4-4-4-4--4-4-4-4-6--6-6-6-6-6--6-6-6-|
D|-4--4-4-4-4-4--4-4-4-4-6--6-6-6-6-6--6-6-6-|
A|-2--2-2-2-2-2--2-2-2-2-4--4-4-4-4-4--4-4-4-|
E|-------------------------------------------|


0:13  (slide only the first time each verse)
e|----------------------------------------------|
B|----------------------------------------------|
G|--7/8---8------8--8-8-8-8-8----8------8-8-8-8-|
D|--7/8---8------8--8-8-8-8-8----8------8-8-8-8-|
A|--5/6-x-6--x-x-6--6-6-6-6-6--x-6--x-x-6-6-6-6-|
E|------x----x-x---------------x----x-x---------|


e|---------------------------------------------------|
B|---------------------------------------------------|
G|-11----11-------11--11-11-11-----------------------|
D|-11----11-------11--11-11-11--6----6--x--x-6-6-6-6-|
A|--9-x---9--x--x--9---9--9--9--6-x--6--x--x-6-6-6-6-|
E|----x------x--x---------------4-x--4--x--x-4-4-4-4-|


0:46
e|-------------------------------------------------|
B|-------------------------------------------------|
G|-8—8--8---8-8-8--8--8-x--6-6--6---6-6-6--6--6--x-|
D|-6-6--6---6-6-6--6—-6-x--4-4--4---4-4-4--4--4--x-|
A|-6-6--6---6-6-6--6--6-x--4-4--4---4-4-4--4--4--x-|
E|-------------------------------------------------|
 
e|------------------------------------------------------------------|
B|------------------------------------------------------------------|
G|-10-10-10--10-10---10-10-10-10-10---10--10-10--10--10--11--11--11-|
D|------------------------------------------------------------------|
A|--8--8--8---8--8----8--8--8--8--8----8---8--8---8---8---9---9---9-|
E|------------------------------------------------------------------|

e|-------------------------------------------------|
B|-------------------------------------------------|
G|-8—8--8---8-8-8--8--8-x--6-6--6---6-6-6--6--6--x-|
D|-6-6--6---6-6-6--6—-6-x--4-4--4---4-4-4--4--4--x-|
A|-6-6--6---6-6-6--6--6-x--4-4--4---4-4-4--4--4--x-|
E|-------------------------------------------------|

e|---------------------------------------------------|
B|---------------------------------------------------|
G|-6-6-6--6-6---6-6-6-6-6---6--6-6--6--6--11--11--11-|
D|---------------------------------------------------|
A|-4-4-4--4-4---4-4-4-4-4---4--4-4--4--4---9---9---9-|
E|---------------------------------------------------|

e|-------------------------------------------------|
B|-------------------------------------------------|
G|-4—4--4---4-4-4--4--4-x--6-6--6---6-6-6--6--6--x-|
D|-2-2--2---2-2-2--2--2-x--4-4--4---4-4-4--4--4--x-|
A|-2-2--2---2-2-2--2--2-x--4-4--4---4-4-4--4--4--x-|
E|-------------------------------------------------|
 
e|------------------------------------------------------------------|
B|------------------------------------------------------------------|
G|-10-10-10--10-10---10-10-10-10-10---10--10-10--10--10--11--11--11-|
D|------------------------------------------------------------------|
A|--8--8--8---8--8----8--8--8--8--8----8---8--8---8---8---9---9---9-|
E|------------------------------------------------------------------|

                     										 
e|----------------------------------------------------|
B|----------------------------------------------------|
G|--4--4-4--4-4--4-4-4-x--6--6--6---6--6---6--6--6--x-|
D|---------------------x--4--4--4---4--4---4--4--4--x-|
A|--2--2-2--2-2--2-2-2-x--4--4--4---4--4---4--4--4--x-|	      	  	   
E|----------------------------------------------------|

e|-----------------------------------------------|
B|-----------------------------------------------|
G|-6-6-6--6-6---6-6-6-6-6---6--6-6--6--6--6--6-6-|
D|-----------------------------------------------|
A|-4-4-4--4-4---4-4-4-4-4---4--4-4--4--4--4--4-4-|
E|-----------------------------------------------|

1:13 
e|--------------------------------------------------------------|
B|--------------------------------------------------------------|
G|-8--x--8--x--x--8---8--8--8--8--8----x--8-x--x--8---8--8--8—8-|
D|-8--x--8--x--x--8---8--8--8--8--8----x--8-x--x--8---8--8--8—8-|
A|-6--x--6--x--x--6---6--6--6--6--6----x--6-x--x--6---6--6--6—6-|
E|--------------------------------------------------------------|

2:16
e|------------------------------------------------------------------|
B|------------------------------------------------------------------|
G|-4-4-4-4-4-4-4-4-4-4-4-4-4-4-4-x--6-6-6-6-6-6-6-6-6-6-6-6-6-6-6-x-|
D|-4-4-4-4-4-4-4-4-4-4-4-4-4-4-4-x--6-6-6-6-6-6-6-6-6-6-6-6-6-6-6-x-|
A|-2-2-2-2-2-2-2-2-2-2-2-2-2-2-2-x--4-4-4-4-4-4-4-4-4-4-4-4-4-4-4-x-|             
E|-2-2-2-2-2-2-2-2-2-2-2-2-2-2-2-x-—4-4-4-4-4-4-4-4-4-4-4-4-4-4-4-x-| 

Acoustic part - 2:43
e|-------------------------------6-----------------2--------4--------2--1----|
B|-----------4----------------------------------------2--------4--2--------2-|
G|--4-----------4-------------------6-----------6--------1-------------------|
D|-----1--4--------4---------4---------4-----6-------------------------------|
A|------------------------1---------------4----------------------------------|
E|---------------------2-----------------------------------------------------|

  
e|------------------------------------|
B|------------------------------------|
G|----------------------------11-11-9-|
D|------------------------------------|
A|-7--7--7--7--7--7--7---------9--9-7-|
E|-5--5--5--5--5--5--5----------------|

3:36
e|----------------------------------------------------------------------|
B|-7-7-7-7-7-7-7-7-7-7---------------------9-9--9--9-9--9-9-9-9-9-9-9-9-|
G|-7-7-7-7-7-7-7-7-7-7-7-7-7-7-7-7-7-7-7-7-9-9--9--9-9--9-9-9-9-9-9-9-9-|
D|-7-7-7-7-7-7-7-7-7-7-7-7-7-7-7-7-7-7-7-7-9-9--9--9-9--9-9-9-9-9-9-9-9-|
A|-5-5-5-5-5-5-5-5-5-5-7-7-7-7-7-7-7-7-7-7-7-7--7--7-7--7-7-7-7-7-7-7-7-|
E|---------------------5-5-5-5-5-5-5-5-5-5------------------------------|


3:49  
e|----------------------------2----|
B|----------------------------4----|
G|--4---4---4-----------------3----|
D|--4---4---4----4---4---4----x----|
A|--2---2---2----4---4---4----x----|
E|--2---2---2----2---2-—-2----x----|
Добавлено: 06.06.2012
Другие материалы по этой песне:

Страница создана 29.02.2012
http://primanota.ru/authority-zero/brick-in-the-wave-chords.htm
Привет, Гость.
Предлагаем пройти революционный курс по гитаре.
Подарок от PrimaNota.Ru, забирай!