PrimaNota.ru - самый крупный в мире бесплатный архив песенных текстов, аккордов, табулатур и нот


Authority Zero - Bravery - текст песни, таба, видео

Регистрация Запомнить меня
Войти через:  Facebook Google Twitter Vk Yandex Mail.ru

Authority Zero - Bravery - текст песни, таба, видео

Печатать
Просмотров: 133
Tuning: Drop C - CGCFAD
Tabbed by nothingface_78@hotmail.com


Intro
|-------------------------------------------------------------------|
|-------------------------------------------------------------------|
|-------------------------------------------------------------------|
|-14-14-14-14-14-14-14-14-14-14-14-14--12-12-12-12-12-12-12-12-12---|
|-14-14-14-14-14-14-14-14-14-14-14-14--12-12-12-12-12-12-12-12-12---|
|-12-12-12-12-12-12-12-12-12-12-12-12--10-10-10-10-10-10-10-10-12---|
|-------------------------------------------------------------------|

Fill
|------------------------------|
|------------------------------|
|------------------------------|
|------------------------------|
|-5-5-5--5-5-5--0-0-0--0-0-0---|
|-5-5-5--5-5-5--0-0-0--0-0-0---|


Verse - These are my hopes, these are my dreams...
|----------------------------------------------------------------------------------|
|----------------------------------------------------------------------------------|
|----------------------------------------------------------------------------------|
|----------------------------------------------------------------------------------|
|-7--7--xxx--7--7--xxx--7--7--44557755445--5--5--xxx--5--5--xxx--5--5--22335533223-|
|-6--6--xxx--6--6--xxx--6--6---------------5--5--xxx--5--5--xxx--5--5--------------|


Because my heart tells me...
|-----------------------------------------------------------------------|
|-----------------------------------------------------------------------|
|-11-11-11-11-11---12-12-12-12-12---14-14-14-14-14-14-14-14-14-14-14----|
|-11-11-11-11-11---12-12-12-12-12---14-14-14-14-14-14-14-14-14-14-14----|
|--9--9--9--9--9---10-10-10-10-10---12-12-12-12-12-12-12-12-12-12-12----|
|-----------------------------------------------------------------------|



|------------------------------------------------------------------|
|------------------------------------------------------------------|
|-11-11-11-11-11---12-12-12-12-12---7-7-7-7-7-7-7-7-7-7-7-7-7-7----|
|-11-11-11-11-11---12-12-12-12-12---7-7-7-7-7-7-7-7-7-7-7-7-7-7----|
|--9--9--9--9--9---10-10-10-10-10---5-5-5-5-5-5-5-5-5-5-5-5-5-5----|
|------------------------------------------------------------------|


Chorus - We are..the bravery that stands....
|-------------------------------------------------------------------------|
|-------------------------------------------------------------------------|
|-------------------------------------------------------------------------|
|-------------------------------------------------------------------------|
|-7-7-7-7-7-7-7-7-7--%---7-7-7-7-7-7--2-2-2-2-2-2--5-5-5-5-5--0-0-0-0-0---|
|-7-7-7-7-7-7-7-7-7------7-7-7-7-7-7--2-2-2-2-2-2--5-5-5-5-5--0-0-0-0-0---|


Break - Guitar 1
|---------------------------------------------------------|
|-------------------------3-3-----------------------------|
|-9-9-7-7-6-6-4-4-2-2-1-1-----6-6-4-4-2-2-1-1-------------|
|---------------------------------------------4-4-2-2-0---|
|---------------------------------------------------------|
|---------------------------------------------------------|


|---------------------------------------------------------|
|---------------------------------------------------------|
|-7-7-6-6-4-4-2-2-1-1-----6-6-4-4-2-2-1-1-----------------|
|---------------------4-4-----------------4-4-2-2-0-0-----|
|-----------------------------------------------------4---|
|---------------------------------------------------------|

Break - Guitar 2
|----------------------------------------------------------------|
|----------------------------------------------------------------|
|-----------------------------------14-14-14-14-14-14-14-14------|
|-----------------------------------14-14-14-14-14-14-14-14------|
|-7~-------5~------5-5-5-5-5-5-5-5--12-12-12-12-12-12-12-12------|
|-6~-------5~------5-5-5-5-5-5-5-5-------------------------------|


|----------------------------------|
|-10~------9~-------8~-------7~----|
|----------------------------------|
|----------------------------------|
|----------------------------------|
|----------------------------------|

Outro - We are the bravery that stands...
|-----------------------------------------------------------------------|
|-----------------------------------------------------------------------|
|-----------------------------------------------------------------------|
|-----------------------------------------------------------------------|
|-777777777777777--5555555555555555555---000000000000000000-------7~----|
|-777777777777777--5555555555555555555---000000000000000000-------7~----|


Добавлено: 26.06.2012
Другие материалы по этой песне:

Страница создана 01.05.2012
http://primanota.ru/authority-zero/bravery-chords.htm
Привет, Гость.
Предлагаем пройти революционный курс по гитаре.
Подарок от PrimaNota.Ru, забирай!