PrimaNota.ru - самый крупный в мире бесплатный архив песенных текстов, аккордов, табулатур и нот


Autechre - Bike - таба, видео

Регистрация Запомнить меня
Войти через:  Facebook Google Twitter Vk Yandex Mail.ru

Autechre - Bike - таба, видео

Печатать
Просмотров: 89
Авторы музыки: Sean Booth, Rob Brown

-------------------------------------------------------------------------------
                             BIKE - Autechre
-------------------------------------------------------------------------------

Tuning: standard

This is only the main riff to the song. I'm not sure where exactly on the fretboard it 
is (if anyone has any idea, please let me know!) but I think it's correct.

e|---------------------------------------------------------------------------|
B|---------------------------------------------------------------------------|
G|--9------9--7--------------------------------------------------------------|
D|---------------10--7------7--9--10--9--------------------------------------|
A|---------------------------------------10--7-------------------------------|
E|---------------------------------------------------------------------------|

e|---------------------------------------------------------------------------|
B|---------------------------------------------------------------------------|
G|--9------9--7--------------------------------------------------------------|
D|---------------10--7------7--9--10--9--7-----------------------------------|
A|---------------------------------------------------------------------------|
E|---------------------------------------------------------------------------|
Добавлено: 06.08.2015
Другие материалы по этой песне:
  • Аккорды и текст

Страница создана 06.08.2015
http://primanota.ru/autechre/bike-chords.htm
Привет, Гость.
Предлагаем пройти революционный курс по гитаре.
Подарок от PrimaNota.Ru, забирай!