PrimaNota.ru - самый крупный в мире бесплатный архив песенных текстов, аккордов, табулатур и нот


Austrian Death Machine - I Need Your Clothes Your Boots And Your Motorcycle - таба, видео

Регистрация Запомнить меня
Войти через:  Facebook Google Twitter Vk Yandex Mail.ru

Austrian Death Machine - I Need Your Clothes Your Boots And Your Motorcycle - таба, видео

Печатать
Просмотров: 256
Уроки эстрадного вокала в Санкт-Петербурге
Band: Austrian Death Machine
Song: I need your clothes, your boots and your motorcycle
Album: Total Brutal

Alright, there are not much ADM songs tabbed
on UG so I'm thinking about tabbing some of them.
I'll start with this song, because it's my favourite.
And yeah.. What can I say? It kicks ass!!!

Tuning: The tuning for this song is in drop C#.
Basically what you do, is to tune all your
strings a half step down except from the low E-string
 which you tune 1 and a half step down.
Like, drop D and just 1/2 step down from there.

NB! This song isn't that difficult.
You just need to get those 3 and 3 notes and fast picking in hand.
You know like: -000-0-000-000 and so on..
If you know this, this song shouldn't be that hard at all.
 This tab is 100% ear transcribed, so no guarantee of perfection.
Anyways, here it is:


 Intro:
                                                   x2
D#|------------------------------------------------|
A#|------------------------------------------------|
F#|------------------------------------------------|
C#|-5/7-5/7-------------------5/7-5/7---8-7-5------|
G#|-3/5-3/5-------------------3/5-3/5---6-5-3------|
C#|--------000-0-000-0-000-000-------000-----------|

Verse:
                                                   x4
D#|------------------------------------------------|
A#|------------------------------------------------|
F#|------------------------------------------------|
C#|-5/7-5/7------------------5/7-5/7---8-7-5-------|
G#|-3/5-3/5------------------3/5-3/5---6-5-3-------|
C#|-------000-0-000-0-000-000-------000------------|

Verse during intro solo:

D#|-------------------------------------------------------------|
A#|-------------------------------------------------------------|
F#|-------------------------------------------------------------|
C#|-------------------------------------------------------------|
G#|------3h5-----------3h5------------3h5------5-3-0-1-1-1------|
C#|-000-0---0-000-000-0---0-5-3--000-0---0-000-5-3-0-1-1-1------|


D#|---------------------------------------------------------------|
A#|---------------------------------------------------------------|
F#|---------------------------------------------------------------|
C#|---------------------------------------------------------------|
G#|------3h5-----------3h5-----------3h5-----------3--3-5-6--5-6-8|
C#|-000-0---0-000-000-0---0-5-3-000-0---0-000-5-3-0---------------|

Verse after solo:

D#|-------------------------------------------------------------|
A#|-------------------------------------------------------------|
F#|-------------------------------------------------------------|
C#|-------------------------------------------------------------|
G#|------3h5-3h5-----3h5-------------3h5-3h5--5-3-0-1-1-33-1-33-|
C#|-000-0---0---000-0----0-5-3--000-0---0-----5-3-0-1-1-33-1-33-|

D#|--------------------------------------------------------------|
A#|--------------------------------------------------------------|
F#|--------------------------------------------------------------|
C#|--------------------------------------------------------------|
G#|------3h5-3h5-----3h5-------------3h5-3h5------3--3-5-6--5-6-8|
C#|-000-0---0---000-0----0-5-3--000-0---0----5-3-0---------------|


Pre chorus:

D#|-------------------------------------------------------------|
A#|-------------------------------------------------------------|
F#|-------------------------------------------------------------|
C#|-7------------8-------------7--------------------------------|
G#|-5------------6-------------5----------------3-5-6---3-5-6---|
C#|--0-0-000-000---0-0-000-000---0-0-000-000--0-------0---------|


D#|-------------------------------------------------------------|
A#|-------------------------------------------------------------|
F#|-------------------------------------------------------------|
C#|-7------------8-------------7-------------8-7--7-8-7-5/7-----|
G#|-5------------6-------------5-------------6-5--5-6-5-3/5-----|
C#|--0-0-000-000---0-0-000-000---0-0-000-000--------------------|

                                                                x2
D#|--------------------------------------------------------------|
A#|--------------------------------------------------------------|
F#|--------------------------------------------------------------|
C#|-7--------------8--------------7------------------------------|
G#|-5--------------6--------------5---------------0-/6-6-6-5-3-5-|
C#|--000-0-0-754653-000-0-0-754653-000-0-0-754653-0-/6-6-6-5-3-5-|

Chorus:
                                                 x4  Last time:
D#|------------------------------------------------||---------|
A#|------------------------------------------------||---------|
F#|------------------------------------------------||---------|
C#|-5/7-5/7------------------5/7-5/7---8-7-5-------||-7-6-10--|
G#|-3/5-3/5------------------3/5-3/5---6-5-3-------||-5-8-8---|
C#|--------000-0-000-0-000-000-------000-----------||---------|

Breakdown(1):
                           x8
D#|-------------------------|
A#|-------------------------|
F#|-------------------------|
C#|-------------------------|
G#|0000--000-0000-0000-0000-|
C#|0000--000-0000-0000-0000-|


Later on the breakdown somewhere while breakdown(1) is playing:

D#|-----------------------------------------------------|
A#|-----------------------------------------------------|
F#|-----------------------------------------------------|
C#|-----------------------------------------------------|
G#|-----------------------------------------------------|
C#|-3-1-0-1--6-5-3-5--3-1-0-1--6-5-3-5-000-0-0-5h6p5p0h3|


(GIVE ME YOUR MO MO MO MO MOOOOO!! YOUR MOTORCYCLE!!!!!!!)


Verse during (The sickest)solo(ever):
                                                             x4
D#|-----------------------------------------------------------|
A#|-----------------------------------------------------------|
F#|-----------------------------------------------------------|
C#|------------0~---------------------0-----------------------|
G#|-0000-0-0-0-0~-----3h5--0000-0-0-0-0-0h1p0h1h3-3h5p3h5h6---|
C#|-0000-0-0-0-0~--3h5-----0000-0-0-0-0-----------------------|

                                                   x2
D#|------------------------------------------------|
A#|------------------------------------------------|
F#|------------------------------------------------|
C#|-5/7-5/7-------------------5/7-5/7---8-7-5------|
G#|-3/5-3/5-------------------3/5-3/5---6-5-3------|
C#|--------000-0-000-0-000-000-------000-----------|

Verse after solo:

D#|-------------------------------------------------------------|
A#|-------------------------------------------------------------|
F#|-------------------------------------------------------------|
C#|-------------------------------------------------------------|
G#|------3h5-----------3h5------------3h5------5-3-0-1-1-1------|
C#|-000-0---0-000-000-0---0-5-3--000-0---0-000-5-3-0-1-1-1------|


D#|---------------------------------------------------------------|
A#|---------------------------------------------------------------|
F#|---------------------------------------------------------------|
C#|---------------------------------------------------------------|
G#|------3h5-----------3h5-----------3h5-----------3--3-5-6--5-6-8|
C#|-000-0---0-000-000-0---0-5-3-000-0---0-000-5-3-0---------------|


D#|-------------------------------------------------------------|
A#|-------------------------------------------------------------|
F#|-------------------------------------------------------------|
C#|-------------------------------------------------------------|
G#|------3h5-3h5-----3h5-------------3h5-3h5--5-3-0-1-1-33-1-33-|
C#|-000-0---0---000-0----0-5-3--000-0---0-----5-3-0-1-1-33-1-33-|

D#|--------------------------------------------------------------|
A#|--------------------------------------------------------------|
F#|--------------------------------------------------------------|
C#|--------------------------------------------------------------|
G#|------3h5-3h5-----3h5-------------3h5-3h5------3--3-5-6--5-6-8|
C#|-000-0---0---000-0----0-5-3--000-0---0----5-3-0---------------|

                                                         x2
D#|-------------------------------------------------------|
A#|-------------------------------------------------------|
F#|-------------------------------------------------------|
C#|-7-----------8------------7----------------------------|
G#|-5-----------6------------5-------------0-/6-6-6-5-3-5-|
C#|--0-0-532431---0-0-532431---0-0-532431--0-/6-6-6-5-3-5-|


D#|--------------------------------------------------------------|
A#|--------------------------------------------------------------|
F#|--------------------------------------------------------------|
C#|-7--------------8--------------7------------------------------|
G#|-5--------------6--------------5---------------0-/6-6-6-5-3-5-|
C#|--000-0-0-754653-000-0-0-754653-000-0-0-754653-0-/6-6-6-5-3-5-|

D#|-------------------------------------------------------------------|
A#|-------------------------------------------------------------------|
F#|-------------------------------------------------------------------|
C#|-7--------------8--------------7---------------7-7/8\7-5-----------|
G#|-5--------------6--------------5---------------5-5/6\5-3-5-5-6-3-5-|
C#|--000-0-0-754653-000-0-0-754653-000-0-0-754653-----------5-5-6-3-5-|

                                                  x4   Last time:
D#|------------------------------------------------|-------------------|
A#|------------------------------------------------|-------------------|
F#|------------------------------------------------|-------------------|
C#|-5/7-5/7------------------5/7-5/7---8-7-5-------|-7-8-10-0~~--(0)---|
G#|-3/5-3/5------------------3/5-3/5---6-5-3-------|-5-6-8--0~~--(0)---|
C#|--------000-0-000-0-000-000-------000-----------|--------0~~--(0)---|

Alright, that's it.
Sorry for not having the awesome solos tabbed,
it's just that I don't have enought time to learn it from ear.
And if you've heard it,
you know it will take some damn long time to get down.
Anyways, hope this helped :)
Please comment/subscribe and tell me what you think!
Добавлено: 03.06.2012
Другие материалы по этой песне:

Страница создана 23.03.2012
http://primanota.ru/austrian-death-machine/i-need-your-clothes-your-boots-and-your-motorcycle-chords.htm
Привет, Гость.
Предлагаем пройти революционный курс по гитаре.
Подарок от PrimaNota.Ru, забирай!